Thesearethedroids Guitar Chords
Thesearethedroids Guitar Chords

Wild One by Thin Lizzy Guitar Chords

If you are looking for Wild One guitar chords, you’ve come to the right place.
You can play Wild One by Thin Lizzy using guitar or guitar.
This song by Thin Lizzy can also be played by that instruments.
=

Wild One guitar chords has rhythm and included in Fighting (1975) album.
You can also find another musical genres, including jazz guitar chords, country music guitar chords, pop guitar chords, world music guitar chords, and rock guitar chords here.

Wild One by Thin Lizzy Guitar Chords


-----------------------------------------------------------------------------

WILD ONE ‘ Thin Lizzy


-----------------------------------------------------------------------------

Tuning: Eb

Guitar 1


e|9-9-9-9-7-4-7-4-7h4-2-----x2----------------------------------------------|
B|--------------------------------------------------------------------------|
G|--------------------------------------------------------------------------|
D|--------------------------------------------------------------------------|
A|--------------------------------------------------------------------------|
E|--------------------------------------------------------------------------|

Guitar 2


e|--------------------------------------------------------------------------|
B|9-9-9-9-7-5-7-5-7h5-4-----x2----------------------------------------------|
G|--------------------------------------------------------------------------|
D|--------------------------------------------------------------------------|
A|--------------------------------------------------------------------------|
E|--------------------------------------------------------------------------|

Guitar 1


e|9-9-9-9-7-4-7-4~-7h4-2~-4p2-0~-2p0----------------------------------------|
B|----------------------------------4~-5p4-2~-4p2-0~------------------------|
G|--------------------------------------------------------------------------|
D|--------------------------------------------------------------------------|
A|--------------------------------------------------------------------------|
E|--------------------------------------------------------------------------|

Guitar 2


e|--------------------------------------------------------------------------|
B|9-9-9-9-7-5-7-5~-7h5-4~-5p4-2~-4p2-0~-2p0---------------------------------|
G|----------------------------------------2~-4p2-1~-------------------------|
D|--------------------------------------------------------------------------|
A|--------------------------------------------------------------------------|
E|--------------------------------------------------------------------------|

Verses

 
Wi
E 
ld one won’t you p
C#m 
lease come home you’ve been aw
B 
ay too long, will youW
E 
e need you  
C#m 
home, we need you n
B 
ear come back wild one will youH
E 
ow can we l
C#m 
ive without your lo
B 
ve you know that could kill youH
E 
ow can we c
C#m 
arry on when y
B 
ou are gone my w
A 
ild 
 
one?

Solo


e|12h9--9---|-----------|------------|-----------|--------------------------|
B|----12-12-|-12h9--9---|------------|-----------|--------------------------|
G|----------|-----11-11-|--11h9--9---|-----------|--------------------------|
D|----------|-----------|------11-11-|-11h9--9---|-------------911/9-------|
A|----------|-----------|------------|-----11-11-|-11h9--9------------------|
E|----------|-----------|------------|-----------|-----12-12-9--------------|
e|--------------------------------------------------------------------------|
B|----------------9-9----12-12----------------------------------------------|
G|-9-9---11-11--------------------------------------------------------------|
D|9-----9--------9------9---------------------------------------------------|
A|--------------------------------------------------------------------------|
E|--------------------------------------------------------------------------|
e|12-12-12-11-11-11-9-9-9---------------------------------------------------|
B|-----------------------12-12-12-10-10-10-9-9-9----------------------------|
G|----------------------------------------------11-11-11-9-9-9-8-8-8-6-6-6--|
D|--------------------------------------------------------------------------|
A|--------------------------------------------------------------------------|
E|--------------------------------------------------------------------------|
e|--------------------------------------------------------------------------|
B|--------------------------------------------------------------------------|
G|4-4-4-2-2-2-1-1-1---------------------------------------------------------|
D|-----------------4-4-4-2-2-2-1-1-1----------------------------------------|
A|----------------------------------4-2-0-----------------------------------|
E|---------------------------------------4-2--------------------------------|

Guitar1


e|--------------------------------------------------------------------------|
B|5h7p5h7p5h7p5h7p5----9h12p9h12p9h12p9h12p9h12-----------------------------|
G|--------------------------------------------------------------------------|
D|--------------------------------------------------------------------------|
A|--------------------------------------------------------------------------|
E|--------------------------------------------------------------------------|

Guitar 2


e|7h9p7h9p7h9p7h9p7----9h12p9h12p9h12p9h12p9h12-----------------------------|
B|--------------------------------------------------------------------------|
G|--------------------------------------------------------------------------|
D|--------------------------------------------------------------------------|
A|--------------------------------------------------------------------------|
E|--------------------------------------------------------------------------|

Go back to the beginning riff

I will update this sometime for the ending,
But I think you guys will be able to figure
It out 🙂

| / slide up
| slide down
| h hammer-on
| p pull-off
| ~ vibrato
| + harmonic
| x Mute note




Leave a Reply

Your email address will not be published.