Thesearethedroids Guitar Chords
Thesearethedroids Guitar Chords

Weathered by Creed Guitar Chords

If you are looking for Weathered guitar chords, you’ve come to the right place.
You can play Weathered by Creed using guitar or guitar.
This song by Creed can also be played by that instruments.
=

Weathered guitar chords has rhythm and included in Weathered (2001) album.
You can also find another musical genres, including jazz guitar chords, country music guitar chords, pop guitar chords, world music guitar chords, and rock guitar chords here.

Weathered by Creed Guitar Chords

( VERSION 1 )

Artist: Creed
Title: Weathered
Album: Weathered

Tuning: DADADD

Part I: Intro

 
G6 
 
A 
 
E 
 

D |-------------------------------|-----------2p0-2/4-0---0-|
D |-3p0-------------0---------0---|-------------------------|
A |-----0-------------0-----------|---------------------3---|
D |-------0---3---------0-------0-|-5p3-0-------------------|
A |-3-------3---2-----------------|-------------------------|
D |-----------------------3/5-----|-------0-----------------|
 
G6/D 
 
A/C# 
 
E 
 

D |-------------------------------|-------------12^---7^----|
D |-3p0-------------0---------0---|-------------12^---7^----|
A |-----0-------------0-----------|-------------12^---7^----|
D |-------0---3---------0-------0-|-5p3-0-------------------|
A |-3-------3---2-----------------|-------------------------|
D |-----------------------3/5-----|-------0-----------------|

Part II: Verse

 
G6 
 
A 
 
E 
 

D |-------------------------------|-------------------0-----|
D |-3p0-------------0---------0---|---------------------0---|
A |-----0-------------0-----------|-----------------------0-|
D |-------0---3---------0-------0-|-5p3-0-------------------|
A |-3-------3---2-----------------|-------------------------|
D |-----------------------3/5-----|-------0-----------------|

__________________________
|1.
G6/D A/C# | E


D |-------------------------------|-----------2p0-2/4-0---0-|
D |-3p0-------------0---------0---|-------------------------|
A |-----0-------------0-----------|---------------------3---|
D |-------0---3---------0-------0-|-5p3-0-------------------|
A |-3-------3---2-----------------|-------------------------|
D |-----------------------3/5-----|-------0-----------------|

______________________
|2.
| E


D |-------------12^-----|
D |----------------12^--|
A |-------------------0-|
D |-5p3-0---------------|
A |---------------------|
D |-------0-------------|

Part III: Chorus

 
E 
 
C 
 
G 
 
D 
 
A 
 

D |----------------------|---------------------------|
D |----------------------|---------------------------|
A |----------------------|---------------------------|
D |-0--0-0-0-8-8-0m-0m-3-|-(3)-3-3-3-3-3-5-5-5m-5m-5-|
A |-0--0-0-0-8-8-0m-0m-3-|-(3)-3-3-3-3-3-3-3-0m-0m-2-|
D |-0--0-0-0-8-8-0m-0m-3-|-(3)-3-3-3-3-3-------------|
 
C 
 

D |-----------------------|-------------------------------------------|
D |-----------------------|-------------------------------------------|
A |-----------------------|-------------------------------------------|
D |-(5)-5-5-5-5-5-5-5-5-5-|-------------------------------------------|
A |-(2)-2-3-5-2-2-2-3-5-2-|-10----------8----------8----------8-8-8-8-|
D |-----------------------|-8--8m-8m-8m-8-8m-8m-8m-8-8m-8m-8m-8-8-8-8-|
 
A 
 

D |--------------------------------------|
D |--------------------------------------|
A |--------------------------------------|
D |-5----------5-5-5-0-5-3-0-3-(3)-3-5-3-|
A |-5----------5-5-5-0-5-3-0-3-(3)-3-5-3-|
D |-5-5m-5m-5m-5-5-5-0-5-3-0-3-(3)-3-5-3-|

Part IV: Bridge

E 3x


D |---------------------------------|---------------------------------|
D |---------------------------------|---------------------------------|
A |-5-----5-----5-----5-----5/6-5---|-1-----1-----1-----1-----1/5-31-|
D |---------------------------------|-0-----0-----0-----0-----0-------|
A |-5-----5-----5-----5-----5/6-5---|-1-----1-----1-----1-----1/5-31-|
D |---0-0---0-0---0-0---0-0-------0-|---0-0---0-0---0-0---0-0-0---0---|
D |-12-12-12---------12-12-12-----12-13-12-10-|-8-8-8---------8-8-8-----8-8-8-|
D |-12-12-12---------12-12-12-----12-13-12-10-|-8-8-8---------8-8-8-----8-8-8-|
A |-12-12-12---------12-12-12-----12-13-12-10-|-8-8-8---------8-8-8-----8-8-8-|
D |-12-12-12---------12-12-12-----12-13-12-10-|-8-8-8---------8-8-8-----8-8-8-|
A |----------0-(0)-0----------0-0-------------|-------0-(0)-0-------0-0-------|
D |----------0-(0)-0----------0-0-------------|-------0-(0)-0-------0-0-------|
D |-7-7-7---------7-7-7-----7-7-7-|-8-8-8---------8-8-8-----8-8-8-|
D |-7-7-7---------7-7-7-----7-7-7-|-8-8-8---------8-8-8-----8-8-8-|
A |-7-7-7---------7-7-7-----7-7-7-|-8-8-8---------8-8-8-----8-8-8-|
D |-7-7-7---------7-7-7-----7-7-7-|-8-8-8---------8-8-8-----8-8-8-|
A |-------0-(0)-0-------0-0-------|-------0-(0)-0-------0-0-------|
D |-------0-(0)-0-------0-0-------|-------0-(0)-0-------0-0-------|
 
C 
 
A 
 

D |-----------------------------------------|--------------------------------------|
D |-----------------------------------------|--------------------------------------|
A |-8-8-------8-8-------8-8-------8-8-------|-5-5-------5-5------------------------|
D |-8-8-8m-8m-8-8-8m-8m-8-8-8m-8m-8-8-8m-8m-|-5-5-5m-5m-5-5-5m-0-5-3-0-3-(3)-3-5-3-|
A |-8-8-8m-8m-8-8-8m-8m-8-8-8m-8m-8-8-8m-8m-|-5-5-5m-5m-5-5-5m-0-5-3-0-3-(3)-3-5-3-|
D |-8-8-8m-8m-8-8-8m-8m-8-8-8m-8m-8-8-8m-8m-|-5-5-5m-5m-5-5-5m-0-5-3-0-3-(3)-3-5-3-|

Song Structure

Intro x 2
Verse x 2
Chorus
Verse
Chorus
Bridge
Chorus

( VERSION 2 )

Author/Artist: Creed
Title: Weathered
Album: Weathered
Tuning: DADADD (low to high)
Transcribed by: Adam Strachn

Thanks to David with help in the verse.

Notes:

Verse – It is finger picked. I tried to get it as close as I could.
There might be a couple notes that I missed since he pick the notes fast.
But I put down the basic layout.

Chorus – This is pretty close. A lot closer than my last tab. Just listen to
the song for when to play each chord.

Bridge – Just some octave riffs . . . sounds like some Zeppelin influence.

Other – There are a lot of fills in this song. I tried to add as many as I could.
Anything else you want to know you can email me.

Intro/Verse –


--------------------------0----------------------------------------------|
-3p0--0----------------------0-----------------------------2-0-2h4-0-----|
---------0----------------------0-------------------------------------3--|
------------0----------------------0-------------5p3p0~------------------|
-3-------------3-2---2~--------------------------------------------------|
---------------------------------------3h5--5----------------------------|
--------------------------0-------------------------------------7^--|
-3p0--0----------------------0-----------------------------7^---7^--|
---------0----------------------0--------------------------7^---7^--|
------------0----------------------0-------------5p3p0~----7^-------|
-3-------------3-2---2~---------------------------------------------|
---------------------------------------3h5--5-----------------------|

Verse –


--------------------------0----------------------------------------------|
-3p0--0----------------------0-----------------------------2-0-2h4-0-----|
---------0----------------------0-------------------------------------3--|
------------0----------------------0-------------5p3p0~------------------|
-3-------------3-2---2~--------------------------------------------------|
---------------------------------------3h5--5----------------------------|

Play this at 0:54 “Maybe I can’t accept the life that’s mine . . .”


--------------------------0-----------------------------------------|
-3p0--0----------------------0--------------------------------------|
---------0----------------------0-----------------------------------|
------------0----------------------0-------------5p3p0~-----5^--5^--|
-3-------------3-2---2~---------------------------------------------|
---------------------------------------3h5--5-----------------------|

Going into first chorus –


---------|
---------|
---------| with distortion (in at 1:31)
-3h5-----|
------5--|
---------|

Chorus – “Me . . .I rusted and weathered . . . “


----------------------------------------|
----------------------------------------|
----5-5-5-5-5---------------------------|
-0--0-0-0-0-0--0--3-3--0--3-3-3-3-3--0--|
-0--0-0-0-0-0--0--1-1--0--3-3-3-3-3--0--|
-0--0-0-0-0-0--0-------0--3-3-3-3-3--0--|

“Barely holding together . . .”


-------------------------------|
-------------------------------|
---3/5--5----------------------|
0----------0--5-5-5-5-5-5-5-5--|
0--3/5--5--0--5-5-5-5-5-5-5-5--|
0----------0--5-5-5-5-5-5-5-5--|

“I’m covered in skin . . . . . . . . that peals and it just . . . . .”


-------------------------------------|--------------------------------------|
-------------------------------------|--------------------------------------|
-------------------------------------|--------------------------------------|
-3--------3--------3--------3--------|--5--------5--------5--------5--------|
-1-0-0-0--1-0-0-0--1-0-0-0--1-0-0-0--|--3-0-0-0--3-0-0-0--3-0-0-0--3-0-0-0--|
---0-0-0----0-0-0----0-0-0----0-0-0--|----0-0-0----0-0-0----0-0-0----0-0-0--|

“Won’t heal . . . “


----------------------|
----------------------|
----------------------|
-------------------0--|
-3--5--3-----------0--|
----------5--3--3--0--|

Going into verse 2 – (with distortion)


-----------------|
-----------------|
-----------------|
-3h5--3h5--3-----|
--------------5--|
-----------------|

Going into 2nd chorus –


--------------|---------------------------------|
--------------|---------------------------------|
--------------|---------------------------------| 2.7^ harmonics
-3--3h5p3-----|--0-0-0-0---2.7^-2.7^-2.7^-2.7^--| between 2nd and 3rd
-----------5--|--0-0-0-0---2.7^-2.7^-2.7^-2.7^--| frets.
--------------|--0-0-0-0---2.7^-2.7^-2.7^-2.7^--|

Then it goes into chorus

Bridge –


--------------------------------------------------------------------|
--------------------------------------------------------------------|
-5-x-5-x-5-x-5-x-x-5-5-5-5/6-5--x--5-x-5-x-5-x-5-x-5-5-5-5---5/6-5--|
--------------------------------x--8-x-8-x-8-x-8-x-8-8-8-8----------|
-5-x-5-x-5-x-5-x-x-5-5-5-5------x--5-x-5-x-5-x-5-x-5-5-5-5---5/-----|
--------------------------------------------------------------------|

Then it finishes on the chorus

Tab Key:
palm mute
h hammer on
p pull off
x mute string
/ slide up
^ harmonic
~ let note ring




Leave a Reply

Your email address will not be published.