Thesearethedroids Guitar Chords
Thesearethedroids Guitar Chords

The Shape of Things to Come by Scar Symmetry Guitar Chords

If you are looking for The Shape of Things to Come guitar chords, you’ve come to the right place.
You can play The Shape of Things to Come by Scar Symmetry using guitar or guitar.
This song by Scar Symmetry can also be played by that instruments.
=

The Shape of Things to Come guitar chords has rhythm and included in album.
You can also find another musical genres, including jazz guitar chords, country music guitar chords, pop guitar chords, world music guitar chords, and rock guitar chords here.

The Shape of Things to Come by Scar Symmetry Guitar Chords

Tuning: Drop C (D G C F A D)
 
F#m 
 
A 
 
E 
 
Bsus2 
 

e|---------------------------------------------
H|---------------------------------------------
G|-------------------------------------------4-
D|-4-4~------------7--------2----------------4-
A|-2/4~------------7--------2----------------2-
E|-2-2~------------5--------0------------------

Birth of the Neohuman Race, coming our Way.

 
F#m 
 
A 
 
E 
 
Bsus2 
 

e|---------------------------------------------------------------
H|---------------------------------------------------------------
G|-------------------------------------------------------------4-
D|----------4-------------7------------------2-----------------4-
A|--------2/4-------------7------------------2-----------------2-
E|----------2-------------5------------------0-------------------

At their Birth will we become as Tears in Rain, lost to the void?

 
Bm 
 
D 
 
A 
 
E 
 
Bm 
 

e|-----------------------------------------------------
H|-----------------------------------------------------
G|-4------------7--------2----------------1----------4-
D|-4------------7--------2----------------2----------4-
A|-2------------5--------0----------------2----------2-
E|----------------------------------------0------------

Dawn of the Neohuman Age, reaching to claim our World.

 
Bm 
 
D 
 
A 
 
E 
 

e|------------------------------------------------
H|------------------------------------------------
G|------------7--------------2------------------1-
D|------------7--------------2------------------2-
A|------------5--------------0------------------2-
E|----------------------------------------------0-

Will we resist or be transformed, is there a Choice?




Leave a Reply

Your email address will not be published.