Thesearethedroids Guitar Chords
Thesearethedroids Guitar Chords

Technicolor by I the Mighty Guitar Chords

If you are looking for Technicolor guitar chords, you’ve come to the right place.
You can play Technicolor by I the Mighty using guitar or guitar.
This song by I the Mighty can also be played by that instruments.
=

Technicolor guitar chords has rhythm and included in We Speak (2010) album.
You can also find another musical genres, including jazz guitar chords, country music guitar chords, pop guitar chords, world music guitar chords, and rock guitar chords here.

Technicolor by I the Mighty Guitar Chords

Verse:

Bm or Bm A6no5 A Em/B


Eb|-----2-----2-----2-----0-----3-----
Bb|-----3-----0-----2-----2-----x-----
Gb|-----4-----4-----2-----2-----4-----
Db|-----4-----0-----4-----2-----2-----
Ab|-----2-----2-----x-----0-----2-----
Eb|-----------------x-----------------

Chorus:

Db Faug/G Bbm Ab Gb Ebm Bbm Fno5/A


Eb|-----5-----6-----7-----5-----3-----7-----7-----------
Bb|-----7-----7-----7-----5-----3-----8-----7-----------
Gb|-----7-----7-----7-----6-----4-----9-----7-----------
Db|-----7-----6-----9-----7-----5-----9-----9-----8-----
Ab|-----5-----------9-----7-----5-----7-----9-----9-----
Eb|-----------------7-----5-----3-----------7-----6-----
 
Bm A6no5 AI understand upset, but how could you say that you hate me.I know you  
Bm 
won’t forget  
Em/B 
easily, easily.Bm A6no5 AIn one small step you flipped like a coin from a finger.Baby you’re  
Bm 
so hell bent,  
Em/B 
but easily, easily I sle
Bm 
ep.

Bm , A6no5 , A
Bm , Em/B

 
Bm A6no5 AEach conversation blurs. Each point repeats with a vengeance.Oh what a  
Bm 
waste of words.
Em/B 
Cough em’ up, cough em’ up.Bm A6no5 ALet silence calm the nerves that are easily botheredAnd we can let  
Bm 
all this talk  
Em/B 
walk it off, walk it off.
 
Db Faug/G BbmI’m trying hard just to forget every little thing that was saidin your  
Ab 
awe-inspired flip out on my  
Gb 
porch.Ebm Bbm Fno5/AThe neighbors watched as you raped me with words.

Bm , A6no5, A
Bm , Em/B

 
Bm A6no5 AWhat happened to rational. Each call complete with a guilt trip.An arguments  
Bm 
bound to fall  
Em/B 
from our lips, from our lips.Bm A6no5 AYou’re so worked up, the product of too many questions.Well baby lets  
Bm 
kill this grudge, make the cut,
Em/B 
sometimes it helps to keep this stuff bottled up.
 
Db Faug/G BbmI’m trying hard just to forget every little thing that was saidin your  
Ab 
awe-inspired flip out on my  
Gb 
porch.Ebm Bbm Fno5/AThe neighbors watched as you raped me with words.
 
You said, ‘
Ebm 
I don’t want to be your lover,
Bbm 
just want you to let me in.’
Ebm 
Black and white we’re under covers.
Bbm 
Wanna taste your Technicolor.

Rythm during the solo:


Eb|--------------------------------------
Bb|--------------------------------------
Gb|--------------------------------------
Db|--9--x--7/9--7/9--x-x-x--4-----7------
Ab|--9--x--7/9--7/9--x-x-x--4-----7------
Eb|--7--x--5/7--5/7--x-x-x--2-----5------
 
Well I  
Gb 
want financial freedom with this band.
Ebm 
 
 
 
Ebm 
want
 
dead presidents.I  
Gb 
wanna hear a politician spe
Ebm 
ak of something relevant.But  
Gb 
I don’t want to be your lover,  
Ebm 
just want you to let me in.
Gb 
Black and white we’re under covers.
Ebm 
Wanna taste your Technicolor.



Leave a Reply

Your email address will not be published.