Thesearethedroids Guitar Chords
Thesearethedroids Guitar Chords

Tabloid Magazine by The Living End Guitar Chords

If you are looking for Tabloid Magazine guitar chords, you’ve come to the right place.
You can play Tabloid Magazine by The Living End using guitar or guitar.
This song by The Living End can also be played by that instruments.
=

Tabloid Magazine guitar chords has rhythm and included in MODERN ARTillery (2003) album.
You can also find another musical genres, including jazz guitar chords, country music guitar chords, pop guitar chords, world music guitar chords, and rock guitar chords here.

Tabloid Magazine by The Living End Guitar Chords

/ slide up
silde down
h hammer on
p pull off
b half bend
^ full bend
^^ bend 2 frets
v bring bend down
pm palm mute
() harmonics

Intro:


e--7---7---7-----7---7---7------|
b--7---7---7-----7---7---7------|
g--9^^-9^^-9^^---9^^-9^^-9^^----|
d-------------------------------|
a-------------------------------|
e-------------------------------|

Lead Guitar


e--7---7---7---7---7---7----------------------------------------------|
b--7---7---7---7---7---7----/10-7-------7b----------------------------|
g--9^^-9^^-9^^-9^^-9^^-9^^--------9p7---7b----------------7-9^^v-7-9--|
d-------------------------------------9----9---7--9---7h9-------------|
a--------------------------------------------9------------------------|
e---------------------------------------------------------------------|
e--7---7---7---7---7---7------------------|
b--7---7---7---7---7---7----/10-7---------|
g--9^^-9^^-9^^-9^^-9^^-9^^--------9p7-----|
d-------------------------------------9---|
a-----------------------------------------|
e-----------------------------------------|
e------------------------------------------------------|
b-7-------7---7-------7---7-------7-------7---7---7----|
g---4---4---4---4---4---4---4---4---4---4---4---4---4--|
d-----7-----------7-----------7-------7----------------|
a------------------------------------------------------|
e------------------------------------------------------|
 
Rythem Guitar
B 
 
F# 
 
G 
 
A 
 
E 
 
G 
 

e----------------------------------------------------------------------|
b--------------------------2-3-2-0-------------------------------------|
g--4--4--------------------2-2-2-2-------------------------------------|
d--4--4--4-4-4-4--5-5-5-5--2-2-2-2--(x3)--2-2-2-2--------5-5-5-5-------|
a--2--2--4-4-4-4--5-5-5-5--0-0-0-0--------2-2-2-2--------5-5-5-5-------|
e--------2-2-2-2--3-3-3-3-----------------0-0-0-0--(x4)--3-3-3-3--(x2)-|

Pre verse:


e----------------------------------|
b----------------------------------|
g--3/4--4------4----7-7--2-2-------|
d--3/4--4------4----7-7--2-2--2-2--|
a--1/2--2--2-2-2----5-5--0-0--2-2--|
e-----------------------------0-0--|

pm.

Verse:


e-------------------------------------2-------2-------2-----2-2----|
b------2-------2-------2-----2-2------2-------2-------2-----2-2----|
g------2-------2-------2-----2-2------2-------2-------2-----2-2----|
d--2-2-2-2-2-2-2-2-2-2-2-2-2-2-2------4-------4-------4-----4-4----|
a--0-0-0-0-0-0-0-0-0-0-0-0-0-0-0--4-4-4-4-4-4-4-4-4-4-4-4-4-4-4----|
e---------------------------------2-2-2-2-2-2-2-2-2-2-2-2-2-2-2----|

pm. ….. ….. … … ….. ….. …
“Temperamental editors
Searching for the passion
Overpaid and over-rated
Looking for a cash in”


e-----------------------------------|
b-----------------------------------|
g------7-------7-7------1-----1-1---|
d--7-7-7-7-7-7-7-7------2-----2-2---|
a--5-5-5-5-5-5-5-5--2-2-2-2-2-2-2---| Repeat all that twice
e-------------------0-0-0-0-0-0-0---|

pm. ….. … …
“Yeah, it’s too late”

Pre Chorus:


e----------------------------------------4-4--(4-4-4)---------|
b----------------------------------------5-5--(5-5-5)---------|
g--7-7--(7-7-7)--7-7--9-9-----------9-9--6-6--(6-6-6)--6-6----|
d--7-7--(7-7-7)--7-7--9-9--(9-9-9)--9-9--6-6--(6-6-6)--6-6----|
a--5-5--(5-5-5)--5-5--7-7--(7-7-7)--7-7--4-4--(4-4-4)--4-4----|
e--------------------------(7-7-7)----------------------------|

“And you read about it
You just can?t sleep without
The pages of the magazine”


e--2-2----------------------------------------------|
b--2-2--(2-2-2)-------------------------------------|
g--3-3--(3-3-3)-------4-4--(4-4)--4--------2-2-2----|
d--4-4--(4-4-4)--4-4--4-4--(4-4)--4--4--5--2-2-2----|
a--4-4--(4-4-4)--4-4--2-2--(2-2)--2--4--5--0-0-0----|
e--2-2-----------2-2-----------------2--3-----------|

“Don’t believe in all you read”

Chorus:

 
B 
 
F# 
 
G 
 
A 
 
E 
 
G 
 

e-----------------------------------------------------------------------|
b--------------------------2-3-2-0--------------------------------------|
g--4--4--------------------2-2-2-2--------------------------------------|
d--4--4--4-4-4-4--5-5-5-5--2-2-2-2--(x3)--2-2-2-2--------5-5-5-5--------|
a--2--2--4-4-4-4--5-5-5-5--0-0-0-0--------2-2-2-2--------5-5-5-5--------|
e--------2-2-2-2--3-3-3-3-----------------0-0-0-0--(x4)--3-3-3-3--(x2)--|

“You can?t trust the tabloid magazine
And I?m about to break down
It?s just a tabloid magazine
And I don?t wanna break down”

Pre Verse

Verse 2: Same as verse 1, but with Lead bit in backround


e--5-5-----5-------------------5-5-----5-------------|
b----------------------------------2-2------2--------|
g------2-2------2----6^v-----------------------------|
d-------------------------(x2)-----------------------| x2
a----------------------------------------------------|
e-----------------------------------------------0-0--|

Pre Chorus

Chorus

Bridge:


e-------------------------------------------------|
b-------------------------------------------------|
g-6--6-7--7-9--9-7--7-6--6-7-7--------2-2---------|
d-7--7-7--7-9--9-7--7-7--7-7-7--4--2--2-2--2------| Repeat as
a-7--7-5--5-7--7-5--5-7--7-5-5--4--2--0-0--2---0--| needed
e-5--5----------------5--5------2--0-------0-2----|

“Don?t wanna be around ?em
Better off without them
You know you can?t escape them”


e-------------------------------------------------|
b-------------------------------------------------|
g--7--7------7-7--9--9------9-9------6-------6----|
d--7--7--7-7-7-7--9--9--9-9-9-9--6-6-6-6-6-6-6----|
a--5--5--5-5-5-5--7--7--7-7-7-7--4-4-4-4-4-4-4----|
e-------------------------------------------------|

pm. … … …..
“And you read about them all the time
From the pages of the magazine”


e-------------------------------------------------|
b-------------------------------------------------|
g---------------------4-4-4----------2-2-2-2------|
d------4-------4--4-4-4-4-4--4--5----2-2-2-2------|
a--4-4-4-4-4-4-4--2-2-2-2-2--4--5----0-0-0-0------|
e--2-2-2-2-2-2-2-------------2--3-----------------|

pm. ….. …
“But you can’t believe in all you read.”

Intro

then


e---------------------|
b---------------------|
g--2-2-2-2-2-2-2-2----|
d--2-2-2-2-2-2-2-2----|
a--0-0-0-0-1-1-1-1----|
e---------------------|

Chorus

Outro:


e-------------7----|
b-------------7----|
g--6-7-6-7----7----|
d--x-x-x-x----9----|
a--4-5-4-5----9----|
e-------------7----|

Tabbed by Jason Zarpellon
jason_zarps@hotmail.com
www.thelivingendtabpage.cjb.net




Leave a Reply

Your email address will not be published.