Thesearethedroids Guitar Chords
Thesearethedroids Guitar Chords

Strangers by Passenger Guitar Chords

If you are looking for Strangers guitar chords, you’ve come to the right place.
You can play Strangers by Passenger using guitar or guitar.
This song by Passenger can also be played by that instruments.
=

Strangers guitar chords has rhythm and included in Whispers II (2015) album.
You can also find another musical genres, including jazz guitar chords, country music guitar chords, pop guitar chords, world music guitar chords, and rock guitar chords here.

Strangers by Passenger Guitar Chords

Capo 5th Fret
 
 
Dm 
 
Am 
 
G 
 
Dm 
 
Am 
 
G 
 

e|----0---1-------1---0--------------------------------0---1--------1----0------5-----5-------5---3-------3--|
B|--3---------3---------------1----1h3--3-------3----3----------3------------1------------0-----0-----0-----0|
G|----0-----2------2------2-----2--0--------0----------0------2--------2---2-------2----0-----------0--------|
D|--3-----0-----0-------2--------------0------0------3-----0------0------------------------------------------|
A|--------------------0-----0--------------------------------------------0------0----------------------------|
E|---------------------------------3------3-------0-----------------------------------3------3----3-----3----|
 
C 
 
G 
 
C 
 
F 
 
G 
 

e|----3--------3---------3-----3------1p0--------------------------------1p0---------------------------------|
B|-1------1--------3(0)----3-------1-------1-------1------1h3--3--------------3------1-----1------------1----|
G|---0------0----0---------------0-------------2-------2----------2---2-----------0----0------0-------------0|
D|-------------------------------------------3-------3-------0------0-------0----------2----2-----0h2-----2--|
A|-3----3----------------------3-----------------------------------------------------3---3------3-----3------|
E|-------------3------3---------------0----1-----1--------3-----3--------3------3----------------------------|
 
 
 
 


e|--------1----------------------------------------------|
B|----3-------3-------1-----------0------1p0-------0-----|
G|----2-----2-----2-------2---0-------0--------0---------|
D|--0---0---------2-----2-----0-----0------------0-------|
A|--------------0---0------------------------------------|
E|--------------------------3---3--------3---3-----------|

Well when you’re with your friends, but you’re lonely


e|--------1----------------------------------------------|
B|----3-------3-------1-----------0------------0---------|
G|----2-----2-----2-------2---0-------0----0-------0-----|
D|--0---0---------2-----2-----0-----0------0-----0-------|
A|--------------0---0------------------------------------|
E|--------------------------3---3--------3---3-----------|
 
You smile a smile that’s not your ownC G F C G  
 

e|--------------------------------------------------------------------------------------------------------|
B|-------1------------0------------1------------1-----------0-----------0------------1-------------1--------|
G|---0-------0----0-------0----2-------2----0-------0----0------0-----------0----0-------0-------------0---|
D|---2-----2------0-----0------3-----3------2-----2------0----0-----0-----0------2-----2-----0h2-----2-----|
A|-3---3----------------------------------3---3---------------------0----------3---3-------3-----3---------|
E|--------------3---3--------1---1---------------------3---3------3---3-----------------------------------|

When comfort comes from a strangers arms, miles away from home

 
 


e|--------1----------------------------------------------|
B|----3-------3-------1-----------0------1p0-------0-----|
G|----2-----2-----2-------2---0-------0--------0---------|
D|--0---0---------2-----2-----0-----0------------0-------|
A|--------------0---0------------------------------------|
E|--------------------------3---3--------3---3-----------|

And you close your eyes to feel a darkness


e|--------1----------------------------------------------|
B|----3-------3-------1-----------0------------0---------|
G|----2-----2-----2-------2---0-------0----0-------0-----|
D|--0---0---------2-----2-----0-----0------0-----0-------|
A|--------------0---0------------------------------------|
E|--------------------------3---3--------3---3-----------|
 
You dream a love you have knownC G F C G  
 

e|----------------------------------------------------------------------------------------------------------|
B|-------1------------0------------1------------1-----------0-----------0------------1-------------1--------|
G|---0-------0----0-------0----2-------2----0-------0----0------0-----------0----0-------0-------------0----|
D|---2-----2------0-----0------3-----3------2-----2------0----0-----0-----0------2-----2-----0h2-----2------|
A|-3---3----------------------------------3---3---------------------0----------3---3-------3-----3----------|
E|--------------3---3--------1---1---------------------3---3------3---3-------------------------------------|

But you wake up instead in a strangers bed, miles away from home

 
Chorus 
F 
 
G 
 
C 
 

e|----------------------------------------------------------------------------|
B|--------1-----------1------------3-----------3-------------1----------1-----|
G|----2-------2----2------2----0-------0---0-------0-----0-------0---0------0-|
D|----3-----3------3----3------0-----0-----0-----0-------2-----2-----2----2---|
A|-----------------------------------------------------3---3-------3---2------|
E|0--1---1-------1---1--------3---3-------3---3-------------------------------|
 
Though you’re in a house, don’t mean it’s a home though you’re
Am 
 
F 
 
G 
 

e|---------------------------------------------------------------------------|
B|--------1-----------1-----------1----------1-----------3----------3--------|
G|----2-------2---2-------2----2------2---2------2----0-----0---0-------0----|
D|----2-----2-----2-----2------3----3-----3----3------0----0----0-----0------|
A|--0---0-------0---0--------------------------------------------------------|
E|---------------------------1---1------1---1-------3---3-----3---3----------|

in a crowd doesn’t mean you’re not alone, doesn’t mean you’re not alone

 
 
 
 


e|--------1----------------------------------------------|
B|----3-------3-------1-----------0------1p0-------0-----|
G|----2-----2-----2-------2---0-------0--------0---------|
D|--0---0---------2-----2-----0-----0------------0-------|
A|--------------0---0------------------------------------|
E|--------------------------3---3--------3---3-----------|

And though he wraps you in wool, you’re still freezing


e|--------1----------------------------------------------|
B|----3-------3-------1-----------0------------0---------|
G|----2-----2-----2-------2---0-------0----0-------0-----|
D|--0---0---------2-----2-----0-----0------0-----0-------|
A|--------------0---0------------------------------------|
E|--------------------------3---3--------3---3-----------|
 
It’s been a while since you been warmC G F C G  
 

e|-----------------------------------------------------------------------------------------------------------|
B|-------1------------0------------1------------1-----------0-----------0------------1--------------1--------|
G|---0-------0----0-------0----2-------2----0-------0----0------0-----------0----0-------0-------0-------0---|
D|---2-----2------0-----0------3-----3------2-----2------0----0-----0-----0------2-----2-----0h2------2------|
A|-3---3----------------------------------3---3---------------------0----------3---3-------3------3----------|
E|--------------3---3--------1---1---------------------3---3------3---3--------------------------------------|

Cause you’re making false starts, with a strangers heart, miles away from home

 
Chorus 
 
F 
 
G 
 
C 
 

e|----------------------------------------------------------------------------|
B|--------1-----------1------------3-----------3-------------1----------1-----|
G|----2-------2----2------2----0-------0---0-------0-----0-------0---0------0-|
D|----3-----3------3----3------0-----0-----0-----0-------2-----2-----2----2---|
A|-----------------------------------------------------3---3-------3---2------|
E|0--1---1-------1---1--------3---3-------3---3-------------------------------|
 
Though he’s on your skin, doesn’t mean he’s in you blood and though
Am 
 
F 
 
G 
 

e|---------------------------------------------------------------------------|
B|--------1-----------1-----------1----------1-----------3----------3--------|
G|----2-------2---2-------2----2------2---2------2----0-----0---0-------0----|
D|----2-----2-----2-----2------3----3-----3----3------0----0----0-----0------|
A|--0---0-------0---0--------------------------------------------------------|
E|---------------------------1---1------1---1-------3---3-----3---3----------|

you let him in, doesn’t mean you’re making love, doesn’t mean you’re making love

 
Bridge 


e|--------1----------------------------------------------|
B|----3-------3-------1-----------0------1p0-------0-----|
G|----2-----2-----2-------2---0-------0--------0---------|
D|--0---0---------2-----2-----0-----0------------0-------|
A|--------------0---0------------------------------------|
E|--------------------------3---3--------3---3-----------|

Cause you’re not in love Oh


e|--------1----------------------------------------------|
B|----3-------3-------1-----------0------------0---------|
G|----2-----2-----2-------2---0-------0----0-------0-----|
D|--0---0---------2-----2-----0-----0------0-----0-------|
A|--------------0---0------------------------------------|
E|--------------------------3---3--------3---3-----------|

You’re not in love Oh


e|--------1----------------------------------------------|
B|----3-------3-------1-----------0------1p0-------0-----|
G|----2-----2-----2-------2---0-------0--------0---------|
D|--0---0---------2-----2-----0-----0------------0-------|
A|--------------0---0------------------------------------|
E|--------------------------3---3--------3---3-----------|

You’re not in love Oh


e|--------1--------------------------------------------------------|
B|----3-------3-------1-----------0------------0------1p0-------0--|
G|----2-----2-----2-------2---0-------0----0-------0--------0------|
D|--0---0---------2-----2-----0-----0------0-----0--------0--------|
A|--------------0---0----------------------------------------------|
E|--------------------------3---3--------3---3--------3-------3----|

You’re not in love, in love Oh

 
 
 
F 
 
G 
 
C 
 

e|---------------------------------------------------------------------------|
B|-------1------1-----1-----------3-----------3-------------1----------1-----|
G|--0h2-----2------2-----3----0-------0---0-------0-----0-------0---0------0-|
D|------------3----3---2------0-----0-----0-----0-------2-----2-----2----2---|
A|----------------------------------------------------3---3-------3---2------|
E|--1-----1------1---1------3---3-------3---3--------------------------------|
 
Cos you know my house will always be your home, You know my heart
Am 
 
F 
 
G 
 

e|---------------------------------------------------------------------------|
B|--------1-----------1-----------1----------1-----------3----------3--------|
G|----2-------2---2-------2----2------2---2------2----0-----0---0-------0----|
D|----2-----2-----2-----2------3----3-----3----3------0----0----0-----0------|
A|--0---0-------0---0--------------------------------------------------------|
E|---------------------------1---1------1---1-------3---3-----3---3----------|
 
is your’s and your’s alone, is your’s and your’s alone
F 
 
G 
 
C 
 

e|---------------------------------------------------------------------------|
B|-------1------1-----1-----------3-----------3-------------1----------1-----|
G|--0h2-----2------2-----3----0-------0---0-------0-----0-------0---0------0-|
D|------------3----3---2------0-----0-----0-----0-------2-----2-----2----2---|
A|----------------------------------------------------3---3-------3---2------|
E|--1-----1------1---1------3---3-------3---3--------------------------------|
 
You know my house will always be your home, You know my heart
Am 
 
F 
 
G 
 

e|----------------------------------------------------------------------------|
B|--------1-----------1-----------1----------1-----------3----------3---------|
G|----2-------2---2-------2----2------2---2------2----0-----0---0-------0-----|
D|----2-----2-----2-----2------3----3-----3----3------0----0----0-----0-------|
A|--0---0-------0---0------------------------------------------------------3--|
E|---------------------------1---1------1---1-------3---3-----3---3-----------|

is your’s and your’s alone, is your’s and your’s alone




Leave a Reply

Your email address will not be published.