Thesearethedroids Guitar Chords
Thesearethedroids Guitar Chords

Silent Night by Aly & AJ Guitar Chords

If you are looking for Silent Night guitar chords, you’ve come to the right place.
You can play Silent Night by Aly & AJ using guitar or guitar.
This song by Aly & AJ can also be played by that instruments.
=

Silent Night guitar chords has rhythm and included in Other Songs album.
You can also find another musical genres, including jazz guitar chords, country music guitar chords, pop guitar chords, world music guitar chords, and rock guitar chords here.

Silent Night by Aly & AJ Guitar Chords

Acoustic Hearts Of Winter
2006 Hollywood Records
Submitted by: paramore_fans@yahoo.com

Tuning: Standard EADGBe on both Aly and Aj and Piano

– means harmonics

Chords used:
G – 320033
D – xx0232
D7 – xx0212
G7 – 320001
Am – x02110
Em – 022000
D/F# – 2x023x
A/C# – x4222x
C – x32010

Intro: G–D–G

Piano:


e|-15------------------------------|
B|-15--15--12--15--13--------------|
G|---------------------14--12---5-|
D|-------------12------------------|
A|---------------------------------|
E|-15----------------------15------|

Aly:


e|-3--2--3-|
B|-3--3--3-|
G|-0--2--0-|
D|-0--0--0-|
A|-2-----2-|
E|-3-----3-|

Aj:


e|-3--------------------3---3------3---3---|
B|----3--0--3--1----------3---3------3---3-|
G|----------------2--0----------0----------|
D|--------------------------------0--------|
A|-----------------------------------------|
E|-----------------------------------------|
 
Verse 1:
G 
Silent night, holy night  
D 
All is calm,  
G 
all is  
G7 
bright

Aly: let ring only


e|-3---------3-|-2-|-3---1-------|
B|-3---3-1-0-3-|-3-|-3---3-----0-|
G|-0---------0-|-2-|-0---0--2----|
D|-0---------0-|-0-|-0-----------|
A|-2---------2-|---|-2-----------|
E|-3---------3-|---|-3-----------|

Aj:


e|-----3---3---|-----2---2---|-----3---3---|
B|-------3---3-|-------3---3-|-------3---3-|
G|---0---------|---2---------|---0---------|
D|-------------|-0-----------|-------------|
A|-------------|-------------|-------------|
E|-3-----------|-------------|-3-----------|

x4 x2 x2

 
C 
Round yon Virgin  
G 
Mother and Child  
C 
Holy Infant so  
G 
tender and mild

Aly:


e|-0--0--------|-3--3---3-------|
B|-1--1--3-1---|-3--3-----3---3-|
G|-0--0------2-|-0--0-0-----0---|
D|-2--2--------|-0--0-----------| (x2)
A|-3--3--------|-2--2-----------|
E|-------------|-3--3-----------|

Aj:


e|---------3---|-----3---3---|
B|-----1-----1-|-------3---3-|
G|-------0-----|---0---------|
D|---2---------|-------------| (x2)
A|-3-----------|-------------|
E|-------------|-3-----------|

x2 x2

 
Am 
Sleep in  
D7 
heavenly 
 
 
G 
pea
D/F# 
—–
Em 
ce 
 
 
G/B 
Sleep in  
D7 
heavenly 
 
 
G 
peace

Aly:


e|-0----|-2----|-3---|---|-0----|-3----|-0--|-3--8--7------|
B|-1----|-1----|-3---|-3-|-0----|-3----|-1--|-3--8--8------|
G|-2----|-2----|-0---|-2-|-0----|-0----|-2--|-0---------5-|
D|-2----|-0----|-0---|-0-|-2----|-0----|-0--|-0------------|
A|-0----|------|-2---|---|-2----|-2----|----|-2------------|
E|------|------|-3---|-2-|-0----|------|----|-3------------|

Aj:


e|---------0---|-------2-----|---------|-----|----|--------|-2-|-----3---3---|
B|-------1---1-|-----1---1---|---------|-----|----|----3---|-1-|-------3---3-|
G|-----2-------|---2-------2-|-------0-|-----|----|-0----0-|-2-|---0---------|
D|---2---------|-0-----------|-----0---|---0-|-2--|-0------|-0-|-------------|
A|-0-----------|-------------|---2-----|-----|-2--|-2------|---|-------------|
E|-------------|-------------|-3-------|-2---|-0--|--------|---|-3-----------|

x2

 
Verse 2: (Same riffs as verse 1)
G 
Silent night, holy night  
D 
Son of God, l
G 
ove’s 
 
p
G7 
ure 
 
light
C 
Radiant beams from  
G 
Thy holy face  
C 
With the dawn of red
G 
eeming 
 
grace
Am 
Jesus, 
 
 
D7 
Lord, at Thy  
Em 
bi–
A/C# 
rth 
 
 
G/B 
Jesus, 
 
 
D7 
Lord, at Thy  
G 
birth

Bridge:


Aly and Aj: G-----D--D7--G--G7--C--D--G--D/F#-Em--G/B--D7--G

Piano solo:


e|--------0-3--0-3-5-7--7--8-10--8----------------------------------0-3-5-7--5--3-|
B|-0--0-3---------------------------8--12------10--12--13-------------------------|
G|----------------------------------------------------------12--------------------|
D|-----------------------------------------10-------------------12----------------|
A|--------------------------------------------------------------------------------|
E|--------------------------------------------------------------------------------|

then


e|-0--2-3-2--3--5--8--7--5--3---------------|
B|-----------------------------3h5p3-0---0--|
G|-------------------------------------2----|
D|------------------------------------------|
A|------------------------------------------|
E|------------------------------------------|
 
Verse 3: (Same riffs as verse 1)
G 
Silent night, holy night!  
D 
Shepherds quake  
G 
at the  
G7 
sight
C 
Glories stream from  
G 
heaven afar  
C 
Heavenly hosts sing  
G 
Hallelujiah!
Am 
Christ, the  
D7 
Saviour is  
Em 
bo–
A/C# 
-rn, 
 
 
G/B 
Christ, the  
D7 
Saviour is  
G 
born



Leave a Reply

Your email address will not be published.