Thesearethedroids Guitar Chords
Thesearethedroids Guitar Chords

Service by Silver Sun Guitar Chords

If you are looking for Service guitar chords, you’ve come to the right place.
You can play Service by Silver Sun using guitar or guitar.
This song by Silver Sun can also be played by that instruments.
=

Service guitar chords has rhythm and included in Silver Sun (1997) album.
You can also find another musical genres, including jazz guitar chords, country music guitar chords, pop guitar chords, world music guitar chords, and rock guitar chords here.

Service by Silver Sun Guitar Chords

Date: Fri, 12 Dec 1997 01:38:54 -0800
From: Lim Yi Farn
Subject: TAB: Service by Silver Sun

SONG NAME: Service
ARTIST: Silver Sun
ALBUM: Silver Sun
TABBED BY: Squier (Y.S.Lim)

Service

Chord used:

 
A5 
 
E 
 
B5 
 
C#5 
 
F#5 
 
G#5 
 

E----5----0----7----4----2----4----|
B----5----0----7----4----2----4----|
G----5----1----7----6----2----4----|
D----7----2----9----6----4----6----|
A----7----2----9----4----4----6----|
E----5----0----7----4----2----4----|

Drum intro

 
A5 
 
E 
Holes in the ground
A5 
 
E 
They’re just circles if they weren’t
A5 
 
E 
They could be square
A5 
 
B5 
If only they weren’t round
B5 
And 
 
 
A5 
March is  
E 
only a  
B5 
month within  
A5 
days
 
(chorus)And the  
B5 
in’s go  
E 
in and the  
A5 
out’s just  
B5 
goAnd how  
A5 
can you  
E 
be, can you  
A5 
be so  
B5 
sureThe 
 
 
A5 
in’s go  
E 
in and the  
A5 
out’s just  
B5 
go
C#5 
We built a  
B5 
fountain, 
 
 
C#5 
it’s to wash
B5 
our children  
A5 
in
E 
 
A5 
 
E 
If sand gets wet
A5 
 
E 
I am not sure
A5 
 
E 
If it gets darker
A5 
 
B5 
or was it lighter before
B5 
And 
 
 
A5 
yes or  
E 
no Wendy  
B5 
try not to  
A5 
think
 
(chorus)And the  
B5 
in’s go  
E 
in and the  
A5 
out’s just  
B5 
goAnd how  
A5 
can you  
E 
be, can you  
A5 
be so  
B5 
sureThe 
 
 
A5 
in’s go  
E 
in and the  
A5 
out’s just  
B5 
go 
 
 
A5 
ye
E 
ah
A5 
B5 
 
And  
C#5 
March is  
A5 
only a  
C#5 
month with  
F#5 
daysBut 
 
 
C#5 
really it  
A5 
comprises a  
C#5 
bunch of  
F#5 
funny 
 
 
G#5 
letters
A#5 
Assorted to spell H-A-R-E-M
C5 

Solo

 
E 
 
A5 
 
B5 
 
A5 
 
E 
 
A5 
 
B5 
A5 
E 
A5 
B5 
A5 
 

E----------------------------------------------------------------------|
B---------------------------------4-5-4--------------------------------|
G---------------------------4---4-------6-6-4-4-6-4--------------------|
D--------------2---2-4--4/6---6----------------------6/7-6-4-4-2-4-6-7-|
A------0-2(h)4---4-----------------------------------------------------|
E-0--2-----------------------------------------------------------------|
 
(chorus)And the  
B5 
in’s go  
E 
in and the  
A5 
out’s just  
B5 
goAnd how  
A5 
can you  
E 
be, can you  
A5 
be so  
B5 
sureThe 
 
 
A5 
in’s go  
E 
in and the  
A5 
out’s just  
B5 
go
C#5 
We built a  
B5 
fountain, 
 
 
C#5 
it’s to wash
B5 
our children  
A5 
in
E 

Bass outro

 
A5 
 
E 
 
A5 
 
E 
 

G--------------------------------------------|
D--------------------------------------------| (Repeat until fade)
A-9/11-9-9-7----------7-------7-7------------|
E-----------------------9-7-9----------------|

Well that’s it. Great band, great song! Have fun and enjoy!




Leave a Reply

Your email address will not be published.