Thesearethedroids Guitar Chords
Thesearethedroids Guitar Chords

Scum Sweetheart by Audio Adrenaline Guitar Chords

If you are looking for Scum Sweetheart guitar chords, you’ve come to the right place.
You can play Scum Sweetheart by Audio Adrenaline using guitar or guitar.
This song by Audio Adrenaline can also be played by that instruments.
=

Scum Sweetheart guitar chords has rhythm and included in Don’t Censor Me (1993) album.
You can also find another musical genres, including jazz guitar chords, country music guitar chords, pop guitar chords, world music guitar chords, and rock guitar chords here.

Scum Sweetheart by Audio Adrenaline Guitar Chords

 
Chords used in the song:O___
E7#9 
______O 
 
_____
A 
______| | | | | | | | | | | |

----------- -----------

| | 1 | | | 1 | | | 1 1


-----------

| 2 | 3 | | | | | 2 | |


----------- -----------

| | | | 4 | | 3 4 | | |


----------- -----------
 
X____
C7 
______ 
 
X____
B7 
______| | | | | | | | | | | |

----------- -----------

| | | | | | | 1 | 1 | 1


----------- -----------

| 1 | 1 | 1 | | | | | |


----------- -----------

| | | | | | | | 3 | 4 |


----------- -----------

| | 3 | 4 |


-----------

Chorus riff (I’m not totally sure on the rythem here):


e -------------------------------3----3-----7--|
B ------8-7/8-7----5-6-5-----5-3-3---3-----7-7-|
G ------7-6/7-6----4-5-5-----5-5-2--2----/6----|
D ------6-5/6-5----3-4-5---------2-------------|
A ---------------------------------------------|
E --0------------------------------------------|
e --------------------------------3----3-----10-7|
B ------8-7/8-7----5-6-5------5-5-3---3-----7----|
G ------7-6/7-6----4-5-5------5-3-2--2----/6-----|
D ------6-5/6-5----3-4-5----------2--------------|
A -----------------------------------------------|
E --0--------------------------------------------|
 
 
|E7#9 / / / |A / / / |C7 / / / |B7 / / / |
 
 
E7#9 
We walk hand in hand ’til life does us part
A 
me and the world and my scum sweetheart
C7 
We met long ago with a flirt and a stare
B7 
together ever since a leathal love affair
E7#9 
I tried to get out to get up and go
A 
I was afraid of the fall, the vertigo
C7 
You made me suffer, guilt was your game
B7 
You had control of what I became
E7#9 
A rotton romance, if I’d stay I’d die
A 
t’was a fond farewell when I said goodbye
C7 
Now I’m free, on solid ground
B7 
No more of you, pushing me around
 
Chorus: play Chorus riff 
You’re my scum sweetheartYou’re the world, You broke my heartYou’re my scum sweetheartYou’re the world, You broke my heart
 
 
E7#9 
You’re the world, full of lies
A 
How could I think of a compromise?
C7 
It seems to me a solitaire affair
B7 
I was in need but you didn’t care
E7#9 
Please stay away, heartbreaker
A 
You’re not going to be, my soultaker
C7 
I’ve got friends that want to see you
B7 
They’d stay away if they had a clue
 
Chorus: same as before 
You’re my scum sweetheartYou’re the world, You broke my heartYou’re my scum sweetheartYou’re the world, You broke my heart
 
 
 
 
E7#9 
It’s a black heart that I see
A 
It’s evil, it’s bad and all in between
C7 
Whatever it is I’ll do my part
B7 
To keep you from being a scum sweetheart

(Hold B7 chord for two measures w/ wind effect)

 
Chorus: Same as before (play the whole thing 3 times) 
You’re my scum sweetheartYou’re the world, You broke my heartYou’re my scum sweetheartYou’re the world, You broke my heart
 
 
E7#9 
You’re my scum sweetheart
A 
C7 
You’re the world, You’re the world
B7 
You broke my heart

(End on an E7#9 chord)




Leave a Reply

Your email address will not be published.