Thesearethedroids Guitar Chords
Thesearethedroids Guitar Chords

Resurrection Fern by Iron & Wine Guitar Chords

If you are looking for Resurrection Fern guitar chords, you’ve come to the right place.
You can play Resurrection Fern by Iron & Wine using guitar or guitar.
This song by Iron & Wine can also be played by that instruments.
=

Resurrection Fern guitar chords has rhythm and included in album.
You can also find another musical genres, including jazz guitar chords, country music guitar chords, pop guitar chords, world music guitar chords, and rock guitar chords here.

Resurrection Fern by Iron & Wine Guitar Chords

Tuning: standard (Capo 5)

INTRO VERSE

 
C 
 

E||----------------||---------------------------------|
B||----------------||------1-1------------1-1---------|
G||--4h-5-0-----0--||-----0-0------0-----0-0------0--|
D||----------2-----||---------0h-2-----------0h-2----|
A||----------------||---3--------------3--------------|
E||----------------||---------------------------------|
 
Em 
 

--------------------------------|------------------------------------|
-----1-1------------1-----------|-----0-0--------------0-0-----------|
-----0-0------0-----0-----------|-----0-0--------------0-0-----------|
---------0h-2----------0h-2--0--|--------------0h-2-------------0h-2-|
--3--------------3--------3-----|---------0h-2-------------0h-2------|
--------------------------------|--0----------------0----------------|
----------------------------------|
-----0-0--------------0-0---------|
-----0-0--------------0-0---------|
--------------0h-2-------------0--|
---------0h-2-------------0h-2----|
--0----------------0--------------|
 
Fadd11+ 
 
C 
 

-----------------------------------|--------------------------------|
----------0-0--0-0-0----0-0--0-0-0-|-----1-1------------1-----------|
----------2-2--2-2-2----2-2--2-2-2-|-----0-0------0-----0-----------|
----------3-3--3-3-3----3-3--3-3-3-|---------0h-2----------0h-2--0--|
-----------------------------------|--3--------------3-------3------|
--1------------------1-------------|--------------------------------|
 
G 
 

--------------------------------|------------------------------||
-----0-0------------0-0---------|-----0-0----------------------||
-----0-0------------0-0---------|-----0-0---------------------||
-----0--------0-----0--------0--|-----0--------0-----------0--||
---------0h-2-----------0h-2----|---------0h-2-------0--2------||
--3--------------3--------------|--3--------------3------------||

REFRAIN:

 
Fadd11+ 
 
C 
 

-----------------------------------|--------------------------------|
----------0-0--0-0-0----0-0--0-0-0-|-----1-1------------1-----------|
----------2-2--2-2-2----2-2--2-2-2-|-----0-0------0-----0-----------|
----------3-3--3-3-3----3-3--3-3-3-|---------0h-2----------0h-2--0--|
-----------------------------------|--3--------------3--------3-----|
--1------------------1-------------|--------------------------------|
 
Fadd11+ 
 
G 
 

-----------------------------------|--------------------------------|
----------0-0--0-0-0----0-0--0-0-0-|-----0-0------------0-0---------|
----------2-2--2-2-2----2-2--2-2-2-|-----0-0------------0-0---------|
----------3-3--3-3-3----3-3--3-3-3-|-----0--------0-----0--------0--|
-----------------------------------|---------0h-2-----------0h-2----|
--1------------------1-------------|--3--------------3--------------|
 
Fadd11+ 
 
C 
 

-----------------------------------|--------------------------------|
----------0-0--0-0-0----0-0--0-0-0-|-----1-1------------1-----------|
----------2-2--2-2-2----2-2--2-2-2-|-----0-0------0-----0-----------|
----------3-3--3-3-3----3-3--3-3-3-|---------0h-2----------0h-2p-0--|
-----------------------------------|--3--------------3--------3-----|
--1------------------1-------------|--------------------------------|
 
Fadd11+ 
 

-----------------------------------|-----------------------------||
----------0-0--0-0-0----0-0--0-0-0-|-----0-0---------------------||
----------2-2--2-2-2----2-2--2-2-2-|-----0-0---------------------||
----------3-3--3-3-3----3-3--3-3-3-|-----0--------0--------------||
-----------------------------------|---------0h-2----------0--2--||
--1------------------1-------------|--3--------------3--3--------||
 
Fadd11+ 
 
X

0 | | | | |


-----------

| | | 0 | |


-----------

| 0 0 | | |


-----------

| | | | | |

VERSE:

 
In our  
C 
days we will liveemLike our ghosts will livePitching  
Fadd11+ 
glass at the cornfield c
C 
rowsAnd folding c
G 
lothes

Like stubborn boys across the road
We’ll keep everything
Grandma’s gun and the black bear claw
That took her dog

And when sister Lowery says “amen”
We won’t hear anything
The ten-car train will take that word
That fledgling bird

And the fallen house across the way
It’ll keep everything
The baby’s breath
Our bravery wasted and our shame

REFRAIN:

 
And we’ll und
Fadd11+ 
ress beside the ashes of the
C 
fireBoth our  
Fadd11+ 
tender bellies wound in baling w
G 
ireAll 
 
the
Fadd11+ 
more a pair of underwater p
C 
earlsFadd11+ G (Lauf)Than the oak tree and its resurrection fern

INSTRUMENTAL (VERSE)

VERSE:

In our days we will say
What our ghosts will say
“We gave the world what it saw fit
And what’d we get?”

Like stubborn boys with big green eyes
We’ll see everything
In the timid shade of the autumn leaves
And the buzzard’s wing

REFRAIN:

And we’ll undress beside the ashes of the fire
Our tender bellies all wound around in baling wire
All the more a pair of underwater pearls
Than the oak tree and its resurrection fern




Leave a Reply

Your email address will not be published.