Thesearethedroids Guitar Chords
Thesearethedroids Guitar Chords

Red by Illuminatus Guitar Chords

If you are looking for Red guitar chords, you’ve come to the right place.
You can play Red by Illuminatus using guitar or guitar.
This song by Illuminatus can also be played by that instruments.
=

Red guitar chords has rhythm and included in album.
You can also find another musical genres, including jazz guitar chords, country music guitar chords, pop guitar chords, world music guitar chords, and rock guitar chords here.

Red by Illuminatus Guitar Chords

Band website: http://www.illuminatus.uk.com/

Not 100% sure (particularly about Riff 1), feel free to make corrections or to put this
on guitar pro.

Intro:


G------------------------|--------------------------|
D------------------------|--------------------------|
A---7----------------3---|------2----2u7--------7u3-|
E------------------------|--------------------------|
B------------------------|--------------------------|
 
 
Intro 2 (0:48):

G-----------9------------------------9---------------9-------------------------9--|---------|
D----------------9--------------9-------------------------9---------------9-------|---------|
A--7-------------------7----------------------------------------------------------|---------|
E-------------------------------------------8--------------------7----------------|-0u12u0--|
B---------------------------------------------------------------------------------|---------|
 
 
Riff 1 (1:28):

G----------------------------------------------------------------------------------------|
D----------------------------------------------------------------------------------------|
A----------------------------------------------------------------------------------------|
E--0--0--0--0--0--0--12--0--0--10u12--0--12--0--0--0--12--12--12--10--10--10--8--8--8--8-|
B----------------------------------------------------------------------------------------|

( Tab from: https://www.guitartabs.cc/tabs/i/illuminatus/red_btab.html )


G-------------------------------------------------------------------|---------|
D-------------------------------------------------------------------|---------|
A-------------------------------------------------------------------|---------|
E-8--8--12--8--8--8--8--10--7--7--7--7--7--7--7--3--2---3--0--0--0--|-0u12u0--|
B-------------------------------------------------------------------|---------|
 
 
Riff 2 (1:48):

G----------------------------------------------------------------|
D----------------------------------------------------------------|
A----------------------------------------------------------------|
E--0--0--0--0--0--0--2--2--2--2--3--3--3--3--3--2--2--2----------|
B--------------------------------------------------------3--3--3-|
G----------------------------------------------------------------------|
D----------------------------------------------------------------------|
A-3--3--3--3--3--3--3--3--3--3--3--3--2--2--2--2----2u5--5--5--5--5----|
E----------------------------------------------------------------------|
B----------------------------------------------------------------------|
 
 
Riff 3 (5:20):

G-------------------------------------------------------------------|
D-------------------------------------------------------------------|
A--------------------------------------------------0--0--0--2--2--2-|
E--0--0--0--0--0--2--2--2--2--2--2--3--3--3--3--3-------------------|
B-------------------------------------------------------------------|
G--------------------------------------------------------------------------|
D--------------------------------------------------------------------------|
A-3--3--3--3--3--3--3--3--3--5--3--2--3--2--3--2--2--2--2--2u5--5--5--5--5-|
E--------------------------------------------------------------------------|
B--------------------------------------------------------------------------|
 
 
u slide



Leave a Reply

Your email address will not be published.