Thesearethedroids Guitar Chords
Thesearethedroids Guitar Chords

Out (failed by The God Machine Guitar Chords

If you are looking for Out (failed guitar chords, you’ve come to the right place.
You can play Out (failed by The God Machine using guitar or guitar.
This song by The God Machine can also be played by that instruments.
=

Out (failed guitar chords has rhythm and included in album.
You can also find another musical genres, including jazz guitar chords, country music guitar chords, pop guitar chords, world music guitar chords, and rock guitar chords here.

Out (failed by The God Machine Guitar Chords

Date: Thu, 12 Dec 1996 17:14:55 +0100
From: “(iso-8859-1) Frdric Lambotte”
Subject: out – the god machine

THE GOD MACHINE – OUT

You only need the two first strings for intro (E + B)

 
 
 

-0------0------0--3-----3-----3--2------2-----2----------0-----2----0------0
-----0--- (one time)
----0-0---0-0---0--0-0---0-0--0---0-0---0-0--0-3-0-0---0-0---0----0-0---0-0---0-
 
 
 

3-----3-----3---2-----2-----2--3-----2-----3----(one time)
--0-0---0-0--0---0-0---0-0--0--0-0---0-0---0-
 
 
 

7-----7------7---5------7-----7----5------5------5---2-----3------2----(do

it four times)


--0-0---0-0---0----0-0---0-0---0----0-0----0-0--0----0-0---0-0--0--
 
 
 

-0------0------0--(only one
time)3-----3-----3--2------2-----2----------0-----2----0------0-----0---
----0-0---0-0---0--------------------0-0---0-0--0---0-0---0-0--0-3-0-0---0-0
---0----0-0---0-0---0-
3-----3-----3--2------2-----2--5------2-----3---2---2------2
--0-0---0-0--0---0-0---0-0--0---0-0---0-0--0---0----0-0---0-

(do the four part many times, I don’t know how many, just listen the CD)
(during the four part, Robin sings ‘ why is your sky so much bluer than mine ‘)

 
After the intro begins the songs, you only needs four chordsE 0 G 3 F# 2 A 50 3 2 5
 
 
 
 
 
 
 
 
 
 
 
 
 
 
 
 
 
 
 
 
 
 
 
 
5
 
It goes like this:
E 
 
 
 
G 
 
 
 
F# 
 
 
 
A 
 
 
 
G 
Sometimes it goes like this:
E 
 
 
 
G 
 
 
 
F# 
Sorry, I don’t have the solo

It was my first attempt at tabbing, so comments are welcome
s930712@student.ulg.ac.be
Enjoy!




Leave a Reply

Your email address will not be published.