Thesearethedroids Guitar Chords
Thesearethedroids Guitar Chords

Our Kings by Miss May I Guitar Chords

If you are looking for Our Kings guitar chords, you’ve come to the right place.
You can play Our Kings by Miss May I using guitar or guitar.
This song by Miss May I can also be played by that instruments.
=

Our Kings guitar chords has rhythm and included in Monument (2010) album.
You can also find another musical genres, including jazz guitar chords, country music guitar chords, pop guitar chords, world music guitar chords, and rock guitar chords here.

Our Kings by Miss May I Guitar Chords

 
 

As Requested By: JRohrer14

Tuning: Drop C (CGCFAD/Drop D One Step Down)
joshuaoliveira@hotmail.com

 
 
– 
 
 
 
– 
 
 
 

- -----------------------------------------------------------------|
- -----------------------------------------------------------------|
- -----------------------------------------------------------------|
- -------------------------3p2-----------------------------3p2-----|
- -5---4---5---0h1---5---------5p4-5---4---5---0h1---5---------5p4-|
- ---0---0---0-----0---0-0-----------0---0---0-----0---0-0---------|
 
PM . . . . … . . . . …
 
 

- -----------------------------------------------------------------|
- -----------------------------------------------------------------|
- -----------------------------------------------------------------|
- -0~--------------------------------------------------------------|
- -0~--------------------------------------------------------------|
- -0~--------------------------------------------------------------|
- -----------------------------------------------------------------|
- -----------------------------------------------------------------|
- -----------------------------------------------------------------|
- -------------------------3p2-----------------------------3p2-----|
- -5---4---5---0h1---5---------5p4-5---4---5---0h1---5---------5p4-|
- ---0---0---0-----0---0-0-----------0---0---0-----0---0-0---------|

PM . . . . … . . . . …


- -----------------------------------------------------------------|
- -----------------------------------------------------------------|
- -----------------------------------------------------------------|
- -------------------------7p5-----------------------------7p5-----|
- -8---7---8---4h5---8---------8p7-8---7---8---4h5---8---------8p7-|
- ---0---0---0-----0---0-0-----------0---0---0-----0---0-0---------|

PM . . . . … . . . . …

Unmatched square brackets:

----------------------------------------------------------------------------
[Riff 2a] - [00:09] - [00:27----------------------------------------| - [2x]
- ------------------------------------------------------------------|
- ------------------------------------------------------------------|
- ------------------------------------------------------------------|
- -------------------------3-2-----------------------------3-2------|
- -5---4---5---0h1---5---------5-4-5---4---5---0h1---5---------5-4--|
- ---0---0---0-----0---0-0-----------0---0---0-----0---0-0----------|

PM . . . . … . . . . …


- -----------------------------------------------------------------|
- -----------------------------------------------------------------|
- -----------------------------------------------------------------|
- ---------------3-------------------------------7-----------------|
- -----5---4h5-------5-----4---5-------8---7h8-------8-----7---8---|
- -5-5---5-----5---5---5-5---5-----8-8---8-----8---8---8-8---8-----|

PM … . . . … . … . . . … .

 
 
– 
 
 
 
– 
 
 
 

- -----------------------------------------------------------------|
- -----------------------------------------------------------------|
- -----------------------------------------------------------------|
- -------------------------7p5-----------------------------7p5-----|
- -8---7---8---4h5---8---------8p7-8---7---8---4h5---8---------8p7-|
- ---0---0---0-----0---0-0-----------0---0---0-----0---0-0---------|

PM . . . . … . . . . …


- ------------------------------------------------------------|
- ------------------------------------------------------------|
- ------------------------------------------------------------|
- ---------------7-----------------------------10-------------|
- -----8---7h8-------8-----7---8------12-10h12----12---10-12--|
- -5-5---5-----5---5---5-5---5-----8-8--8-----8--8--8-8--8----|

PM … . . . … . … . . . … .


----------------------------------------------------------------------------
 
 
– 
 
 
 
– 
 
 
 

- -----------------------------------------------------------------|
- -----------------------------------------------------------------|
- -----------------------------------------------------------------|
- -----------------------------------------------------------------|
- -8---7---8---10--8---7---8---10--8---7---8---10--8---7---8---10--|
- ---0---0---0---0---0---0---0---0---8---8---8---8---8---8---8---8-|
 
PM . . . . . . . . . . . . . . . .
 
 

- -----------------------------------------------------------------|
- -----------------------------------------------------------------|
- -----------------------------------------------------------------|
- -0-0-0-----------------------x-x-8-8-8-----------------------x-x-|
- -0-0-0-----------------------x-x-8-8-8-----------------------x-x-|
- -0-0-0-----------------------x-x-8-8-8-----------------------x-x-|
- -----------------------------------------------------------------|
- -----------------------------------------------------------------|
- -----------------------------------------------------------------|
- ---------------------------------------------7---------------7---|
- -8---7---8---10--8---7---8---10--8---7---8-------8---7---8-------|
- ---7---7---7---7---7---7---7---7---5---5---5---5---5---5---5---5-|
 
PM . . . . . . . . . . . . . . . .
 
 

- -----------------------------------------------------------------|
- -----------------------------------------------------------------|
- -----------------------------------------------------------------|
- -7-7-7-----------------------x-x-5-5-5~--------------------------|
- -7-7-7-----------------------x-x-5-5-5~--------------------------|
- -7-7-7-----------------------x-x-5-5-5~-------------/15---------|
- -----------------------------------------------------------------|
- -----------------------------------------------------------------|
- -----------------------------------------------------------------|
- -----------------------------------------------------------------|
- -8---7---8---10--8---7---8---10--8---7---8---10--8---7---8---10--|
- ---0---0---0---0---0---0---0---0---8---8---8---8---8---8---8---8-|
 
PM . . . . . . . . . . . . . . . .
 
 

- -----------------------------------------------------------------|
- -----------------------------------------------------------------|
- -----------------------------------------------------------------|
- -------------8---------------8---------------8---------------8---|
- -12--10--12------12--10--12------12--10--12------12--10--12------|
- ---0---0---0---0---0---0---0---0---8---8---8---8---8---8---8---8-|

PM . . . . . . . . . . . . . . . .


- -----------------------------------------------------------------|
- -----------------------------------------------------------------|
- -----------------------------------------------------------------|
- ---------------------------------------------7---------------7---|
- -8---7---8---10--8---7---8---10--8---7---8-------8---7---8-------|
- ---7---7---7---7---7---7---7---7---5---5---5---5---5---5---5---5-|
 
PM . . . . . . . . . . . . . . . .
 
 

- -----------------------------------------------------------------|
- -----------------------------------------------------------------|
- ---------------------------------------------7---------------7---|
- -------------8---------------8---7---5---7-------7---5---7-------|
- -12--10--12------12--10--12--------------------------------------|
- ---7---7---7---7---7---7---7---7---5---5---5---5---5---5---5---5-|

PM . . . . . . . . . . . . . . . .

Unmatched square brackets:

----------------------------------------------------------------------------
[Riff 4, Guitar 1 & 2] - [00:46] - [01:04------------------------------| - [2x]
- ---------------------------------------------------------------------|
- ---------------------------------------------------------------------|
- ---------------------------------------------------------------------|
- -0~-------------------------------8~---------------7~------8---7----|
- -0~-------------------------------8~---------------7~------8---7----|
- -0~-------------------------------8~---------------7~------8---7----|

 
 
 

- --------------------------------------------------------------------|
- --------------------------------------------------------------------|
- ---------5----------------5--3--2---------5-------------------------|
- ----3---------------3-------------3--3----------------3---/8---7---|
- -5-----5---------5-----5----------------5----------3-----3----------|
- --------------------------------------------------------------------|

im a lil iffy about the lead 😛 its so faded in the background lol


----------------------------------------------------------------------------
 
 
– 
 
 
 
– 
 
 
 

- ---------------------------------|
- ---------------------------------|
- ---------------------------------|
- -0---------------0-------\-----|
- -0---------------0-------\-----|
- -0---------------0-------\-----|
 
 
 

- ---------------------------------|
- ---------------------------------|
- ---------------------------------|
- -0---------------\-------------|
- -0---------------\-------------|
- -0---------------\-------------|
----------------------------------------------------------------------------
 
 
– 
 
 
 
– 
 
 
 

Unmatched square brackets:

----------------------------------------------------------------------------
[Riff 6] - [01:27] - [01:45-----------------------------------------| - [2x]
- ------------------------------------------------------------------|
- ------------------------------------------------------------------|
- ------------------------------------------------------------------|
- -------------------------------------------------7----------------|
- -5-----5-----5---4-----4-----4---8-----8-----8-------8---7---8----|
- ---0-0---0-0---0---0-0---0-0---0---0-0---0-0---0---0---0---0---0--|

PM … … . … … . … … . . . . .


- -----------------------------------------------------------------|
- -----------------------------------------------------------------|
- -----------------------------------------------------------------|
- -----------------------------------------------------------------|
- -5-----5-----5---4-----4-----4---8-----8-----8---7-----7-----7---|
- ---8-8---8-8---8---8-8---8-8---8---8-8---8-8---8---8-8---8-8---8-|

PM … … . … … . … … . … … .


----------------------------------------------------------------------------
 
 
– 
 
 
 
– 
 
 
 
– 
 
 
 


----------------------------------------------------------------------------
 
 
– 
 
 
 
– 
 
 
 

- -----------------------------------------------------------------|
- -----------------------------------------------------------------|
- -----------------------------------------------------------------|
- -----------------------------------------------------------------|
- -6-6-6-6---------6-6-6-----6-6-------------------6-6-6-6-3-3-3-3-|
- ---------0-0-0-0-------0-0-----0-0-0-0-0-0-0-0-0-----------------|
 
 
 
 
- -----------------------------------------------------------------|- -----------------------------------------------------------------|- -----------------------------------------------------------------|- -0~--------------------------------------------------------------|- -0~--------------------------------------------------------------|- -0~--------------------------------------------------------------|- ---------------------------------------------------------------------|- ---------------------------------------------------------------------|- ---------------------------------------------------------------------|- ---------------------------------------------------------------------|- -6-6-6-6---------6-6-6-----6-6---------------------------------------|- ---------0-0-0-0-------0-0-----0-0-0-0-0-0-0-0-0-
 
-|
 
 
 
Unmatched square brackets:

- ---------------------------------------------------------------------|
- ---------------------------------------------------------------------|
- ---------------------------------------------------------------------|
- ---------------------------------------------------------------------|
- ---------------------------------------------------------------------|
- -------------------------------------------------[2/3/4/6/8/9/10/12]-|
[Riff 8] - [02:12] - [02:22-----------------------------------------| - [2x]
- ------------------------------------------------------------------|
- ------------------------------------------------------------------|
- ------------------------------------------------------------------|
- ------------------------------------------------------------------|
- -6-6-6-6---------6-6-6-----6-6-------------------6-6-6-6-3-3-3-3--|
- ---------0-0-0-0-------0-0-----0-0-0-0-0-0-0-0-0------------------|

 
 
– 
 
 
 
– 
 
 
 

- -----------------------------------------------------------------|
- -----------------------------------------------------------------|
- -----------------------------------------------------------------|
- -----------------------------------------------------------------|
- -0-0-0-0---------0-0-0-0---0---0-----------------0-0-0-0-0---0-0-|
- -0-0-0-0---------0-0-0-0---0---0-----------------0-0-0-0-0---0-0-|
 
PM ………………………………………………………
 
 

- -----------------------------------------------------------------|
- -----------------------------------------------------------------|
- -----------------------------------------------------------------|
- -----------------------------------------------------------------|
- -6-6-6-6---------6-6-6-----6-6-------------------6-6-6-6-3-3-3-3-|
- ---------0-0-0-0-------0-0-----0-0-0-0-0-0-0-0-0-----------------|
- -----------------------------------------------------------------|
- -----------------------------------------------------------------|
- -----------------------------------------------------------------|
- -----------------------------------------------------------------|
- -0-0-0-0---------0-0-0-0---0---0-----------------0-0-0-0-0-0-0-0-|
- -0-0-0-0---------0-0-0-0---0---0-----------------0-0-0-0-0-0-0-0-|
 
PM ………………………………………………………
 
 

- -----------------------------------------------------------------|
- -----------------------------------------------------------------|
- -----------------------------------------------------------------|
- -----------------------------------------------------------------|
- -6-6-6-6---------6-6-6-----6-6-------------------6-6-6-6-3-3-3-3-|
- ---------0-0-0-0-------0-0-----0-0-0-0-0-0-0-0-0-----------------|
 
 
– 
 
 
 
– 
 
 
 
 
- ---------------------------------------------------------------------|- ---------------------------------------------------------------------|- ---------------------------------------------------------------------|- ---------------------------------------------------------------------|- -0-0-0-0---------0-0-0-0---0---0---------------------0-0-0-0-0-0-0-0-|- -1-1-1-1---------1-1-1-1---1---1-
 
-1-1-1-1-1-1-1-1-|

PM …………………………. ……………


- -----------------------------------------------------------------|
- -----------------------------------------------------------------|
- -----------------------------------------------------------------|
- -----------------------------------------------------------------|
- -0-0-0-0---------0-0-0-0---0---0-----------------0-0-0-0-0-0-0-0-|
- -1-1-1-1---------1-1-1-1---1---1-----------------1-1-1-1-1-1-1-1-|

PM ………………………………………………………

Unmatched square brackets:

[Riff 11a] - [02:40] - [02:49---------------------------------------| - [2x]
- ------------------------------------------------------------------|
- ------------------------------------------------------------------|
- ------------------------------------------------------------------|
- ------------------------------------------------------------------|
- -0-0-0-0---------0-0-0-0---0---0-----------------0-0-0-0-0-0-0-0--|
- -0-0-0-0---------0-0-0-0---0---0-----------------0-0-0-0-0-0-0-0--|

PM ………………………………………………………

 
 
– 
 
 
 
– 
 
 
 
– 
 
 
 
 
 
-
 
- is the crazy sliding harmonic thing you hear, itsnot that hard to do its just weird to try n put on paper 😛 just startaround like the 2nd fret, dont hold it just touch it, and strum whilesliding your finger up towards the 12th fret. the frets indicated are notexact lol it might even be the wrong string and the wrong place 😛 butthats the idea hahaha


----------------------------------------------------------------------------
 
 
– 
 
 
 
– 
 
 
 

- ---------------------------------|
- ---------------------------------|
- ---------------------------------|
- -----------------------------7--|
- -----5---4h5---------8---7h8-----|
- -5-5---5-----5-5-8-8---8---------|
 
PM … . ……. .
 
 

- ---------------------------------|
- ---------------------------------|
- ---------------------------------|
- -5---------------8---------------|
- -5---------------8---------------|
- -5---------------8---------------|
----------------------------------------------------------------------------
 
 
– 
 
 
 
– 
 
 
 


----------------------------------------------------------------------------
 
 
– 
 
 
 
– 
 
 
 

- ---------|
- ---------|
- ---------|
- -0-------|
- -0-------|
- -0-------|
----------------------------------------------------------------------------
 
 
 
PM… Palm Mute notes with (…) under themh Hammer Onp Pull Offx Dead Note (no noise)/ SLide Up Slide Down\ Pick Slide
 
Natural Harmonics

🙂




Leave a Reply

Your email address will not be published.