Thesearethedroids Guitar Chords
Thesearethedroids Guitar Chords

Love Henry by Bob Dylan Guitar Chords

If you are looking for Love Henry guitar chords, you’ve come to the right place.
You can play Love Henry by Bob Dylan using guitar or guitar.
This song by Bob Dylan can also be played by that instruments.
=

Love Henry guitar chords has rhythm and included in World Gone Wrong (1993) album.
You can also find another musical genres, including jazz guitar chords, country music guitar chords, pop guitar chords, world music guitar chords, and rock guitar chords here.

Love Henry by Bob Dylan Guitar Chords


. : . . . : . : . . . :
------|-----------------|---- ------|-----------------|----
-/5---|-3---1---1---1---|-1-- -/5---|-3---1---1---1---|-1--
-/5---|-4---2---2---2---|-0-- or -/5---|-4---2---0---2---|-0--
-/5---|-----0---3---3---|-2-- -/5---|----(0)--0---3---|-2--
------|-----------------|-3-- ------|-------------3---|-3--
------|-----------------|---- ------|-----------------|----

: . . . : . : . . . : . . .
|-------------------------|-----------------|---------------0-|
|-1---------1---1---0---1-|-----------------|---------------1-|
|-0---------0---2---0---0-|-----------------|-------------0---|
|-2---------2-----3---3---|-2-----------0---|-2-----------2---|
|-----3---3---3-----------|-3---------------|-3---------------|
|-------------------------|-----------------|-----------------|
: . . . : . . . : . . .
|-----0-----------|-3---------------|-----------------|
|-----1-----------|-0---------------|------------(0)--|
|-0---------------|-0---------------|------------(0)--|
|-2-------0-------|-0---------------|------------(0)--|
|-------------3---|-2---------------|-----------------|
|-----------------|-3-----------3---|-2h3-------------|
: . . . : . : . . . : . . .
|-------0---0---0---------|-----------------|-----------------|
|-1---------------1-------|-1---------------|------------/5---|
|-0---0---0---0---2-0--(0)|-0---------------|------------/5---|
|-0h2-----------------3---|-----2-----------|------------/5---|
|-(h3)--------------------|-----------------|-3---------------|
|-------------------------|-----------------|-----------------|
: . . . : . . . : . . .
|-----------------|-------0---0-----|-------0---0-----|
|-3---1---1---1---|-------1---1-1---|-------1---1-----|
|-4---2---0---2---|-----0---0---0---|-----0---0-------|
|----(0)--0---3---|-2---2---2---2---|-----2---2---3---|
|-------------3---|-3---------------|-3-----------3---|
|-----------------|-----------------|-----------------|
Get . . .
 
C 
;Get down, get down  
F 
Love 
 
Henry,&
C 
quot; she cried“And stay all night  
G 
with meI  
C 
have gold chains, and the  
F 
finest I  
C 
have
C 
I’ll 
 
ap
G 
ply 
 
 
Dm7 
them 
 
 
F 
all to  
C 
thee.”

. . : . . . :
--------|-----------------|-----
---/5---|-3---1-1-----1---|-----
---/5---|-4---2-2-----2---|-----
---/5---|-------3-----3---|-2---
--------|-----------------|-3---
--------|-----------------|-----

“I can’t get down and I shan’t get down
Or stay all night with thee
Some pretty little girl in Cornersville
I love far better than thee.”


. . : . . . :
--------|-----------------|-----
---/5---|-3---1-----1-----|-----
---/5---|-4---2---2---2---|-----
---/5---|---------3---3---|-2---
--------|-----------------|-3---
--------|-----------------|-----

He layed his head on a pillow of down
Kisses she gave him three
With a penny knife that she held in her hand
She murdered mortal he.


. . : . . . :
--------|-----------------|-----
---/5---|-3---1-----1-----|-----
---/5---|-4---2---2---2---|-----
---/5---|-----0---3---3---|-2---
--------|-----------------|-3---
--------|-----------------|-----

“Get well, get well Love Henry,” she cried
“Get well, get well,” said she
“Oh don’t you see my own heart’s blood
Come flowin’ down so free ?”
She took him by his long yellow hair
And also by his feet
She plunged him into well water, where
It runs both cold and deep.
“Lie there, lie there, Love Henry,” she cried
“‘Til the flesh rots off your bones
Some pretty little girl in Cornersville
Will mourn for your return.”
“Hush up, hush up, my parrot,” she cried
“Don’t tell no news on me
Or these costly beads around my neck
I’ll apply them all to thee.”
“Fly down, fly down pretty bird,” she cried
“And light on my right knee
The doors to your cage shall be decked with gold
And hung on a willow tree.”
“I won’t fly down, I can’t fly down
And light on your right knee
A girl who would murder her own true love
Would kill a little bird like me.”


After last instrumental:
. : . . . : . : . . . :
------|---------1-------|---- ------|-----------------|----
-/5---|-3---1---1---0---|-1-- -/5---|-3---1---1---1---|-1--
-/5---|-4---2---2---0---|-0-- . . . -/5---|-4---2---0---2---|-0--
-/5---|-----0---3---3---|-2-- -/5---|----(0)--0---3---|-2--
------|---------3---3---|-3-- ------|--------(2)--3---|-3--
------|-----------------|---- ------|---------3-------|----




Leave a Reply

Your email address will not be published.