Thesearethedroids Guitar Chords
Thesearethedroids Guitar Chords

Love by Seahaven Guitar Chords

If you are looking for Love guitar chords, you’ve come to the right place.
You can play Love by Seahaven using guitar or guitar.
This song by Seahaven can also be played by that instruments.
=

Love guitar chords has rhythm and included in Ghost (2010) album.
You can also find another musical genres, including jazz guitar chords, country music guitar chords, pop guitar chords, world music guitar chords, and rock guitar chords here.

Love by Seahaven Guitar Chords


-----------------------------------------------------------------------------
-----------------------------------------------------------------------------

Tuning: Standard

Great song, pretty simple, but fun to play to.

 
VERSE: (x8)
C5 
 
F5 
 
D5 
 
F5 
 

e|------------------------------------------------------------------|
B|------------------------------------------------------------------|
G|------------------------------------------------------------------|
D|-5-5-5-5-5-5-5-5-----------------7-7-7-7-7-7-7-7------------------|
A|-3-3-3-3-3-3-3-3-3-3-3-3-3-3-3-335-5-5-5-5-5-5-5-3-3-3-3-3-3-3-33-|
E|-----------------1-1-1-1-1-1-1-11----------------1-1-1-1-1-1-1-11-|

pm . . . . . . . . . . . . . . . . . . . .

 
CHORUS:
C5 
 
F5 
 
D5 
 
F5 
 

e|-----------------------------------------------------------------|
B|-----------------------------------------------------------------|
G|-5-5-5-5-5-5-5-5-----------------7-7-7-7-7-7-7-7-----------------|
D|-5-5-5-5-5-5-5-5-3-3-3-3-3-3-3-3-7-7-7-7-7-7-7-7-3-3-3-3-3-3-3-3-|
A|-3-3-3-3-3-3-3-3-3-3-3-3-3-3-3-3-5-5-5-5-5-5-5-5-3-3-3-3-3-3-3-3-|
E|-----------------1-1-1-1-1-1-1-1-----------------1-1-1-1-1-1-1-1-|
 
VERSE 2 Lead:
C5 
 
F5 
 
D5 
 
F5 
 

e|-----|-----------------------------------------------------|
B|-----|-----------------------------------------------------|
G|-----|---------------------------------------------2-3-2---|
D|-----|------2--------------2---0-------------------------3-|
A|-0-2-|-3--3-----3------------------5--5-7-5----------------|
E|-----|--------------0-1--1-------------------1---1---------|

BRIDGE:


e|----------------------------------|--|------------------|--|
B|----------------------------------|--|------------------|--|
G|-5-5--x--4---4-x------------------|x3|------------------|x2|
D|-5-5--x--5---5-x-3---3-----3------|--|-3-3-3-3-3-3-3-3--|--|
A|-3-3--x--2---2-x-3---3-3-3-3-3-3-3|--|-3-3-3-3-3-3-3-3--|--|
E|-----------------1---1-1-1-1-1-1-1|--|-1-1-1-1-1-1-1-1--|--|

|
|


e|----------------------------------|--|------------------|--|
B|-----------------13------12-------|--|-12----12--13--13-|--|
G|---------------------12-----12----|x3|---12----12--12---|x2|
D|-1414---12--12---------12------12-|--|-----12-----------|--|
A|-1212---10--10--------------------|--|------------------|--|
E|----------------------------------|--|------------------|--|
e|-----------------------------------|
B|-----------------------------------|
G|-----------------------------------|
D|-7-7-7-7-7-7-7-7-7-7-7-7-7-7-7-7-7-|
A|-5-5-5-5-5-5-5-5-5-5-5-5-5-5-5-5-5-|
E|-----------------------------------|

|
|


e|-----------------------------------|
B|-----------------------------------|
G|--7-7-7-7-7-7-7-7-9-9-9-9-7-7-7-7--|
D|-9-9-9-9-7-7-7-7-7-7-7-7-7-7-7-7---|
A|-----------------------------------|
E|-----------------------------------|

LEAD into CHORUS:


e|---------------------------------------|
B|---------------------------------------|
G|----------7-----------7----------------|
D|-----4----------------------10---------|
A|-5-----------8--------------------8----|
E|---------------------------------------|
 
VERSE:You had the  
C 
Love of a creator before  
F 
I was born.That ultra
Dm 
sound was of a son to be the  
F 
light of your world.
C 
October 
 
 
F 
came, you were still a
Dm 
lone.
F 
My mother  
C 
just couldn’t let go, but you  
F 
understood.You even  
Dm 
handed her the blanket that you  
F 
made for me in hope,
C 
My little  
F 
body would be yours to h
Dm 
old.
F 
You know that  
C 
blanket was the blanket  
F 
that kept me warm?I think  
Dm 
today it’s still the blanket that con
F 
tinues to keep me warm.
C 
Because I get  
F 
cold when I think of  
Dm 
him.
F 
 
CHORUS:But my  
C 
mother’s heart fell back into the  
F 
hands of a man,The one who  
Dm 
embraced me with  
F 
Love and no questions asked.
C 
”We’re all just  
F 
children of God.” he sa
Dm 
id.
F 
And I don’t  
C 
carry his blood but I  
F 
know enough,To know that  
Dm 
I don’t need science to  
F 
feel undying love.
C 
My whole life and  
F 
three brothers makes me a  
Dm 
son.
F 
 
VERSE:
C 
And as for you I know this is the  
F 
bond we share,I re
Dm 
main right here while  
F 
you’re somewhere out there.
C 
But you will  
F 
always be right
Dm 
here.
F 
The 
 
iron
C 
y is in the fact that you and  
F 
my old manParal
Dm 
lel in a theme too  
F 
hard for me to understand.
C 
You both loved me  
F 
more than my father ever  
Dm 
did.
F 
 
CHORUS:But my  
C 
mother’s heart fell back into the  
F 
hands of a man,The one who  
Dm 
embraced me with  
F 
Love and no questions asked.
C 
”We’re all just  
F 
children of God.” he sa
Dm 
id.
F 
And I don’t  
C 
carry his blood but I  
F 
know enough,To know that  
Dm 
I don’t need science to  
F 
feel undying love.
C 
My whole life and  
F 
three brothers makes me a  
Dm 
son.
F 



Leave a Reply

Your email address will not be published.