Thesearethedroids Guitar Chords
Thesearethedroids Guitar Chords

Laiyop by Tronic Guitar Chords

If you are looking for Laiyop guitar chords, you’ve come to the right place.
You can play Laiyop by Tronic using guitar or guitar.
This song by Tronic can also be played by that instruments.
=

Laiyop guitar chords has rhythm and included in Ke patine la risa (2003) album.
You can also find another musical genres, including jazz guitar chords, country music guitar chords, pop guitar chords, world music guitar chords, and rock guitar chords here.

Laiyop by Tronic Guitar Chords

 
| Tronic- Laiyop |
 
 

“Recuerdo risas, gritos, sangre y un buen beat…”

Tuning: EADG

Verse
“Trat de adivinar porque se repiti…”
1.


G|---------------------------------------|
D|-------------------------57-7-----5757-|
A|---------4---------5-------------------|--x2
E|-35-5-33---35-5-33---35-5----35-5------|

Chorus
“Layayop, layayop…”
2.


G|-----------------------------------|
D|-------------------77777x---77777x-|
A|-----------------------------------|
E|-55555x---55555x-------------------|

“Si te muerdo cerca es…”
3.


G|-----------------------------------|
D|-----------------------------------|
A|-------------------454-0000-454-00-|
E|-55555555-55555555-----------------|

Verse
“Nunca olvidar que yo te lo advert…”
4.


G|---------------------------------------|
D|-------------------------57-7-----5757-|
A|---------4---------5-------------------|--x2
E|-35-5-33---35-5-33---35-5----35-5------|

Chorus
“Layayop, layayop…”
5.


G|-----------------------------------|
D|-------------------77777x---77777x-|
A|-----------------------------------|
E|-55555x---55555x-------------------|

“Si te muerdo cerca es…”
6.


G|-----------------------------------|
D|-----------------------------------|
A|-------------------454-0000-454-00-|
E|-55555555-55555555-----------------|

Bridge
7.


G|---------------|
D|----57----5757-|
A|---------------|--x4
E|-55----55------|

Chorus
“Layayop, layayop…”
8.


G|-----------------------------------|
D|-------------------44444x---44444x-|
A|-----------------------------------|
E|-55555x---55555x-------------------|

“Si te muerdo cerca es…”
9.


G|-------------------------------------|
D|----------------------------44444444-|
A|-55555555-77777777-------------------|--x4
E|-------------------55555555----------|

Outro
10.


G|---------------------------------------|
D|---------------------------------------|
A|-55555555-77777777---------------------|
E|-------------------5~------------------|

Lyrics:

Trat de recordar como es que me dorm
Recuerdo risas, gritos, sangre y un buen beat
Trat de adivinar porque se repiti
Algo entre nosotros si nos desangr

Laiyaiyop
Si te muerdo cerca es porque me voy

Nunca olvidar que yo te lo advert
Ahora que lo pienso el juego era de ti

 
 
| RaiLeff || Underground__Dora@Hotmail.Com |
 



Leave a Reply

Your email address will not be published.