Thesearethedroids Guitar Chords
Thesearethedroids Guitar Chords

In a Second by Guitar Chords

If you are looking for In a Second guitar chords, you’ve come to the right place.
You can play In a Second by using guitar or guitar.
This song by can also be played by that instruments.
=

In a Second guitar chords has rhythm and included in Other Songs album.
You can also find another musical genres, including jazz guitar chords, country music guitar chords, pop guitar chords, world music guitar chords, and rock guitar chords here.

In a Second by Guitar Chords

Aly & Aj
Into The Rush
2005 hollywood Records
This is the correct way to play this song.

Tuning: Standard EADGBe and a capo on first fret on both Aly and Aj and an extra

guitar

 
Chords used in this song:FM7 – xx3210C – x32010Gsus4 – 320010D9 – xx0230G – 320033Am – x02210
F 
Dm 
 
 
 
 
 
 
xx0231Bb – x13331F/A – x03211Intro:

Aly: at 0:09


e|-----3-0--|
B|-3-1---3--|
G|-------2--|
D|-------0--|
A|----------|
E|----------|

Aj: FM7-C-Gsus4-D9 (x2)

Verse 1:

Aly:
0:18 0:23 0:31


e|-13-------|-----0--------13-|-13-------|
B|----14----|-3-1-------14----|----14----|
G|-------13-|--------13-------|-------13-|
D|----------|-----------------|----------|
A|----------|-----------------|----------|
E|----------|-----------------|----------|
 
Aj:
FM7 
Don’t 
 
 
C 
know where  
Gsus4 
you 
 
 
D9 
are
FM7 
Wish I  
C 
just could be  
Gsus4 
near 
 
 
D9 
you
FM7 
 
 
C 
would sail  
Gsus4 
o—–
D9 
ceans
FM7 
To get a  
C 
glimpse of how you  
Gsus4 
feel
D9 

Refrain:

Aly: Idle

 
Aj:You’re  
F 
all the things I’m looking For  
G 
everything and so much more

Chorus:

Aly:
0:46 to 0:50 & 0:52 to 0:57 1:01 1:05 to 1:09


e|------------------0-1-3---|---0---|-----------------0-1-3---|
B|-1-3-1---3-1-3-1--------1-|-------|-1-3-1---3-1-3-1-------1-|
G|-------0------------------|-0-----|-------0-----------------|
D|--------------------------|-------|-------------------------|
A|--------------------------|-------|-------------------------|
E|--------------------------|-------|-------------------------|

x2

 
Aj:
C 
What 
 
 
G 
 
 
Am 
think
F 
You are just perfect
C 
Could 
 
 
G 
it 
 
 
Am 
be 
 
 
F 
That I am worth it
Dm 
Is this thing an open door
F 
Walk right through to something more
C 
You 
 
 
G 
and 
 
 
Am 
me 
 
 
F 
My life would change in a  
Dm 
secondIn a  
F 
second

Verse 2:

Aly: 1:18 to 1:24 1:29 1:31 to 1:37 1:38 to 1:44


e|-0-1-3-------0-----|-----0-|-3-------0-----|-------------0-|
B|-------1--3----1---|---1---|-----1-1---1---|-1-1-1-3---1---|
G|-----------------0-|-0-----|-------------0-|---------0-----|
D|-------------------|-------|---------------|---------------|
A|-------------------|-------|---------------|---------------|
E|-------------------|-------|---------------|---------------|

Extra Guitar:


e|-3-3-3-3-3-3-3-3-3-3-3-3-3-3-3-3-|
B|-1-1-1-1-1-1-1-1-1-1-1-1-1-1-1-1-|
G|-0-0-0-0-0-0-0-0-0-0-0-0-0-0-0-0-|
D|---------------------------------| (x4)
A|---------------------------------|
E|---------------------------------|
 
Aj:
FM7 
Don’t 
 
 
C 
know how  
Gsus4 
you 
 
 
D9 
fee
FM7 
l You  
C 
seem to keep it to your
Gsus4 
self
D9 
FM7 
Would 
 
 
C 
you climb  
Gsus4 
moun–
D9 
tains
FM7 
To show me  
C 
this is something  
Gsus4 
real
D9 

(Repeat Refrain and Chorus)

 
Bridge:
Bb 
Could it be Could it be  
F/A 
You and me You and meF G(Hold)Do I see Do I see clearly

(Repeat Chorus except last 2 lines)
(Repeat Chorus)




Leave a Reply

Your email address will not be published.