Thesearethedroids Guitar Chords
Thesearethedroids Guitar Chords

French Navy by Camera Obscura Guitar Chords

If you are looking for French Navy guitar chords, you’ve come to the right place.
You can play French Navy by Camera Obscura using guitar or guitar.
This song by Camera Obscura can also be played by that instruments.
=

French Navy guitar chords has rhythm and included in My Maudlin Career (2009) album.
You can also find another musical genres, including jazz guitar chords, country music guitar chords, pop guitar chords, world music guitar chords, and rock guitar chords here.

French Navy by Camera Obscura Guitar Chords

D 
 
Em 
 

|-----------------|
|-----------------|
|-------------5-7-|
|-----------------|
 
Spent a week in a dusty  
Em 
libr
D 
ary

|-----------------|
|-----------------|
|-------------7-5-|
|-----------------|
 
Waiting for some words t
D 
 
j
Em 
ump at me

|-----------------|
|-----------------|
|-------------5-7-|
|-----------------|
 
We met by a trick of fate
Em 
D 

|-----------------|
|-----------------|
|-------------7-5-|
|-----------------|
 
French navy my sailor mate
G 

|------------------|
|------------------|
|--------------0h2-|
|-----------333----|
 
We met by the  
D 
moon at the silvery lake

|-----------------|--------------------|
|-5-55-55-5-------|--------------------|
|-------------2-4-|-5-55-5x-5x-----2h4-|
|----------2h3----|-------------2h3----|
 
You came my  
G 
way, I said, “I want you
D 
to 
 
stay”

|-----------------|--------------------|
|-5-55-55-5-------|--------------------|
|-------------2-4-|-5-55-5x-5x-----2-4-|
|----------2h3----|------------x2h3----|
 
Em 
You with your dietary restrictions Said  
D 
you loved me with a lot of conviction

|-----------------|----------------|
|-----------------|----------------|
|-7-77-77-7---5h7-|-5-55-55-5---55-|
|----------5h7----|----------5h7---|
 
Em 
I was waiting to be struck by lightning Waiting
D 
for somebody exciting like . . .

|-----------------|---------------|
|-----------------|------------24-|
|-7-77-77-7---5h7-|-5-55-5x-55----|
|----------5h7----|---------------|
 
G 
. . . you Oh the thing
D 
that you do

|-----------------|--------------------|
|-5-55-55-5-------|--------------------|
|-------------2-4-|-5-55-5x-5x-----2h4-|
|----------2h3----|-------------2h3----|
 
You make me go woo
G 
With the things that you d
D 
o you do you do

|-----------------|--------------------|
|-5-55-55-5-------|--------------------|
|-------------2-4-|-5-55-5x-5x-----2h4-|
|----------2h3----|-------------2h3----|
 
I wanted to con
Em 
trol it But love I co
G 
uldn’t hold it

|---------------|----------7646-|
|-2-22-22-x2244-|-5-55-55-5-----|
|---------------|---------------|
|---------------|---------------|
 
I wanted to con
Em 
trol it But love I  
G 
couldn
A 
’t hold it

|---------------|---------------|
|-2-22-22-x2244-|-5-55-57777777-|
|---------------|---------------|
|---------------|---------------|
 
Em 
I’ll be criticized for lending out my art
D 
I was criticized for letting you break my heart
Em 
Why wouldn’t I stand for disappointed looks?
D 
I’m fully grown but I’m on tenter
G 
hooks, ooh with the l
D 
ooksOn 
 
tenter
G 
hooks, ooh, with the  
D 
looks the looks the looks
 
I wanted to con
Em 
trol itBut love I couldn’t  
G 
hold itI wanted to con
Em 
trol itBut love I couldn’t  
G 
hold 
 
i
A 
t

Em – D (repeat)

 
Em 
Relationships were something I used to  
Em 
do
D 
Convince me they are better for me and  
D 
you
Em 
We met by a trick of fate
Em 
D 
French navy my sailor mate

(chorus)

 
I wanted to con
Em 
trol itBut love I couldn’t  
G 
hold itI wanted to con
Em 
trol itBut love I couldn’t  
G 
hold itI wanted to con
Em 
trol itBut love I couldn’t  
G 
hold itI wanted to con
Em 
trol itBut love I couldn’t  
G 
hold 
 
i
A 
t

Em D (repeat and fade)




Leave a Reply

Your email address will not be published.