Thesearethedroids Guitar Chords
Thesearethedroids Guitar Chords

Down by Suede Guitar Chords

If you are looking for Down guitar chords, you’ve come to the right place.
You can play Down by Suede using guitar or guitar.
This song by Suede can also be played by that instruments.
=

Down guitar chords has rhythm and included in Head Music (1999) album.
You can also find another musical genres, including jazz guitar chords, country music guitar chords, pop guitar chords, world music guitar chords, and rock guitar chords here.

Down by Suede Guitar Chords

 
Riff:
A 
 
Bb 
 

e|-0--------2---------------------------------------------|
B|-2--------3-----5-4-3-2-...-----------------------------|
G|-2--------4---------------------------------------------|
D|-2--------4---------------------------------------------|
A|-0--------2---------------------------------------------|
E|--------------------------------------------------------|

Solo:
slow bends


e|--------------------------------------------------------|
B|--13~-------13b(15)----b(13)-~----------13b(15)---------|
G|--------------------------------------------------------|
D|--------------------------------------------------------|
A|--------------------------------------------------------|
E|--------------------------------------------------------|
e|--------------------------------------------------------|
B|--15~-------15b(17)----b(18)--b(15)~----15b(17)b15------|
G|----------------------------------------------------14--|
D|--------------------------------------------------------|
A|--------------------------------------------------------|
E|--------------------------------------------------------|

Outro Riff:


e|---------------------------------------------------------------|
B|--13~-----15--15b(17)b(15)------15--15b(17)b(15)---------------|
G|----------------------------16--------------------14--b(15)b14-|
D|---------------------------------------------------------------|
A|---------------------------------------------------------------|
E|---------------------------------------------------------------|
------------------

CheshirBat@aol.com
http://members.aol.com/cheshirbat/tab


------------------
#----------------------------------PLEASE NOTE----------------------------------#

# This file is the author’s own work and represents their interpretation of the #
# song. You may only use this file for private study, scholarship, or research. #


#-------------------------------------------------------------------------------#

DOWN

(verse)

A, Bm, A, Bm,
C#m, D, G, E,

(chorus)

C, F, C, F,
Dm, C, Dm, G,

(outro)

C, Em, A,

All the people in your life say you`re down
And the strangers in the night say you`re down
And the loonies on the right say you`re down and you`re down
And the ambulances sigh that you`re down
And the traffic speeding by says you`re down
And the people in your life say you`re down and you`re down
Hey you chase the day away
Hey you draw the blinds and blow your mind away
And there`s a sadness in your style
And there`s a blankness in your smile
And the people in the park say you`re down
And the strangers in the dark say you`re down
And the pissheads in the bars say you`re down
And the audiences cry that you`re down
And the ambulances sigh that you`re down
And the boyfriends in your life say you`re down and you`re down
Hey you chase the day away
Hey you draw the blinds and blow your mind away
And there`s a sadness in your style
And there`s a blankness in your smile
Hey you chase the day away
Hey you draw the blinds and blow your mind away
And there`s a sadness in your style
And there`s a madness in your smile




Leave a Reply

Your email address will not be published.