Thesearethedroids Guitar Chords
Thesearethedroids Guitar Chords

Do You See What I See? by Mark Seymour Guitar Chords

If you are looking for Do You See What I See? guitar chords, you’ve come to the right place.
You can play Do You See What I See? by Mark Seymour using guitar or guitar.
This song by Mark Seymour can also be played by that instruments.
=

Do You See What I See? guitar chords has rhythm and included in Daytime and the Dark (2005) album.
You can also find another musical genres, including jazz guitar chords, country music guitar chords, pop guitar chords, world music guitar chords, and rock guitar chords here.

Do You See What I See? by Mark Seymour Guitar Chords

HUNTERS & COLLECTORS
DO YOU SEE WHAT I SEE
(Comment Rate and Please Highlight Mistakes)

INTRO:
G A | |A G | |G A | |A D

VERSE 1:
|Am |C |G |D
I spy your humble home I see the tea towels fly

|Am |C |G |D
In a blinding flash I see the years go by

|Am |C |G |D
Memories twisting around somebody’s finger

|Am |C |G |D
Behind me now but I still re-member

CHORUS:
|Am |C |G |D
Do you see what I see? Do you see what I see?

|Am |C |G |D
Do you see what I see? Do you see what I see?

VERSE 2: (Same chord progression in all verses)

|Am |C |G |D

North to the ocean We drove so far
Where last years light is shining Hotter thsn the sun
Looking for someone In a suburb that I know
But I wasn’t around for long I had somewhere else to go

CHORUS: (As above)

BRIDGE:

|Am |C |G |D

I see the safest place a-round In that suburb down below

|Am |C |G |D
My hands are empty now And I’m waving as I go


E------------------|-----------------|-----------------|-------------------|
B----------------1-|-----1---3-1-----|-------------1-3-|-3-----4-3-1-------|
G--2---2---2-0-2---|-------------2-0-|-----0---0-2-----|-------------2-----|
D------------------|-----------------|-----------------|-------------------|
A------------------|-----------------|-----------------|-------------------|
E------------------|-----------------|-----------------|-------------------|
E-----------------|-----------------|-----------------|--------------------|
B-----------------|-----------------|-----------------|--------------------|
G-----------------|-----------------|-----------------|--------------------|
D-----------------|-----------------|-----------------|--------------------|
A-0---0---0---0-3-|-----3---5-3-0---|-----------0-3-5-|-5------6-5-3-0-----|
E-----------3-----|---------------3-|-----3---3-------|--------------------|

VERSE 3:

|Am |C |G |D

You were gone for a little while It was a fine fine line
Between first and second thoughts We left them all behind
Now we barely falter Now the long drive has begun
North to the ocean Hotter than the sun

THEN PLAY
CHORUS: (As above)
BRIDGE: (As above)

G A | |A G | |G A | |A D

|Am |C |G |D
Do you remember? Do you remember?

|Am |C |G |D
Do you remember? Do you remember?


E-----------------|-----------------|-----------------|-----------------|
B-----------------|-----------------|-----------------|-----------------|
G-----------------|-----------------|-----------------|-----------0-----|
D-----------------|-----------0-2---|-0---------------|-----0-2-------2-|
A-0---------------|-----0-3---------|-----------------|---3-------------|
E-----------------|---3-------------|-----------------|-----------------|
 
Am 
 
C 
 
G 
 
D 
 

E-----------------|-----------------|-----------------|-----------------|
B-----------------|-----------------|-----------------|-----------------|
G-----------------|---0-------------|-----------------|---0---2---4-2---|
D-----------------|-2---2-0-------0-|-------------0-2-|-----------------|
A-----------------|-----------3-----|-----------3-----|-----------------|
E-----------------|-----------------|-----------------|-----------------|
 
Am 
 
C 
 
G 
 
D 
 

E-----------------|-----------------|-----------------|-----------------|
B-----------------|-------1---3-5---|-3---------------|-----3-5---8---5-|
G-2---------------|---0-2-----------|-----------------|---5-------------|
D-----------------|-----------------|-----------------|-----------------|
A-----------------|-----------------|-----------------|-----------------|
E-----------------|-----------------|-----------------|-----------------|
 
Am 
 
C 
 
G 
 
D 
 
Am 
 

E-----------------|-----------------|-----------------|-------5---7-5---|-5-
B-----------------|-5-8-5-3-------3-|-------------3-5-|---8-------------|-5-
G-----------------|-----------5-----|-----------5-----|-----------------|-5-
D-----------------|-----------------|-----------------|-----------------|-7-
A-----------------|-----------------|-----------------|-----------------|-7-
E-----------------|-----------------|-----------------|-----------------|-5-

Tab Compiled From Previous Tabs




Leave a Reply

Your email address will not be published.