Thesearethedroids Guitar Chords
Thesearethedroids Guitar Chords

Diamond Mine by Blue Rodeo Guitar Chords

If you are looking for Diamond Mine guitar chords, you’ve come to the right place.
You can play Diamond Mine by Blue Rodeo using guitar or guitar.
This song by Blue Rodeo can also be played by that instruments.
=

Diamond Mine guitar chords has rhythm and included in Diamond Mine (1989) album.
You can also find another musical genres, including jazz guitar chords, country music guitar chords, pop guitar chords, world music guitar chords, and rock guitar chords here.

Diamond Mine by Blue Rodeo Guitar Chords

Diamond Mine is one my favourite Blue Rodeo songs ever, enjoy!


----------------------------------------------------------------------------

DIAMOND MINE – BLUE RODEO


----------------------------------------------------------------------------

Em:022000 Am:x02210 Bm:xx4432 C:x32010 A:x02220 Asus4:x02230 Asus2:x02200
D:x00232 G:320003 or 320033 Dsus4:x00233
(n.c.)
Our love shines
Like a diamond mine
(organ, then bass follows with this;)


E||-------------------------||
B||-------------------------||
G||-----------------------||
D||-----------------------||
A||-------------0----2--0---||
E||---0----3----------------||
 
Em 
You say the party’s overBut like a drunken foolI never know when to leave
Am 
It’s just that in the eyes of this beholder
Em 
You mean everything to me
Em 
 

e:---3--3--0-----------------------------------------------|
B:---3--3--0--2--0--------------2b(3)----------------------|
G:------------2--0--0--------0--2b(3)--0--2b(3)--0---------|
D:------------------2---0h2-------------------------2--0--2|
A:---------------------------------------------------------|
E:---------------------------------------------------------|
e:---------------------------------------------------------|
B:------0--2--0--2--2b(3)--2b--0--2--0---------------------|
G:------0--2--0--2--2b(3)--2b--0--2--0---------------------|
D:--0h2---------------------------------0h2--0--0--2~~-----|
A:---------------------------------------------------------|
E:---------------------------------------------------------|
e:---3--3--0------------------------|
B:---3--3--0------------------------|
G:------------0--2b(3)&r--0---------|
D:------------0--2b(3)&r--0---------|
A:----------------------------------|
E:----------------------------------|
 
Em 
You say you don’t love meYou talk about the other boysAnd you laugh in my face
Am 
But I know when you’re feeling sad and lonely
Em 
No other boy can take my place
C 
Cause when I  
Bm 
look into your  
A 
eyes
Asus4 
A 
Asus2 
A 
Our 
 
 
Em 
love 
 
 
A 
shi
C 
nes (fill 1:)

E:----------------|
B:----------------|
G:----------------|
D:----------------|
A:---3--2--0------|
E:------------0---|
 
Our  
Em 
love 
 
 
A 
shi
C 
nes
Bm 
Like a diamond  
Em 
mine
 
G 
Nothing’s as obvious as  
Em 
what is lost
G 
Nothing’s as painful as the  
A 
costSo let it  
Em 
shi
C 
ne
D 
Dsus4 
D 
Let it  
Em 
shin
C 
e
D 
Dsus4 
D 
Like a diamond  
Em 
mine

(Lengthy organ solo with the Em bass riff)

 
Em 
And I hear all these rumours about youYea the trash lines up at my door just to bring me the news
Am 
But all it does is make me kind of wonder
Em 
Why are people so eager to be so cruel
C 
Cause when I  
Bm 
look into your  
A 
eyes
Asus4 
A 
Asus2 
A 
Em A C (fill)Our love shinesEm A C (fill)Our love shinesOur  
Em 
love 
 
 
A 
shi
C 
nes
Bm 
Like a diamond  
Em 
mine
A 
C 
D 
Like a diamond  
Em 
mine
A 
C 
D 
Em A C D to end;mess around with similar licks to thoseafter the first verse; end on Em crescendo



Leave a Reply

Your email address will not be published.