Thesearethedroids Guitar Chords
Thesearethedroids Guitar Chords

Celebrate by Bleach Guitar Chords

If you are looking for Celebrate guitar chords, you’ve come to the right place.
You can play Celebrate by Bleach using guitar or guitar.
This song by Bleach can also be played by that instruments.
=

Celebrate guitar chords has rhythm and included in Again, for the First Time (2002) album.
You can also find another musical genres, including jazz guitar chords, country music guitar chords, pop guitar chords, world music guitar chords, and rock guitar chords here.

Celebrate by Bleach Guitar Chords

Tooth And Nail/BEC Records

rhythm guitar power chords
-Intro-
C-F C-f B-A-F

-Verse 1- (palm muted)


C-F-C-F-C-F-C-F
 
-Chorus- (x2)
C-F-C-F 
C-F 
-Verse 2- (palm muted)

C-F-C-F-C-F-C-F

-Chorus- (x2)

 
-Bridge-
C-F-C-F 
C-F-C-F 
-Chorus- 
 
(x2)
 
C-A-F 
you 
 
are

E-D(bend)-F

Lead Guitar (use wah, tremolo, flanger, and delay where needed)
-Intro-


E-------------------
B-------------------
G-9-10-12-7(bend)-9-
D-------------------
A-------------------
E-------------------

-Verse 1-


E--------------------------------------------
B--------------------------------------------
G-9-1012-10-9(bend)-----------9-------------
D--------------------12--10-12---12(bend)-10-
A--------------------------------------------
E--------------------------------------------

-Verse 2-


E--------------------------------------------
B--------------------------------------------
G-9-1012-10-9(bend)-----------9-------------
D--------------------12--10h12---12(bend)-10-
A--------------------------------------------
E--------------------------------------------

play again but pick each note 4 times

-Chorus-
play chords

-Bridge-


E-----------------
B-----------------
G-10---10-9-------
D-----------12-10-
A-----------------
E-----------------

this is a great song! EVERYONE SHOULD GET THIS CD AS SOON AS IT COMES OUT!
its in the key of C major so you can make up lead work for the chorus (or
any other part).

questions/corrections: firebucketpatrol@hotmail.com




Leave a Reply

Your email address will not be published.