Thesearethedroids Guitar Chords
Thesearethedroids Guitar Chords

Beautiful People by Australian Crawl Guitar Chords

If you are looking for Beautiful People guitar chords, you’ve come to the right place.
You can play Beautiful People by Australian Crawl using guitar or guitar.
This song by Australian Crawl can also be played by that instruments.
=

Beautiful People guitar chords has rhythm and included in The Boys Light Up (1980) album.
You can also find another musical genres, including jazz guitar chords, country music guitar chords, pop guitar chords, world music guitar chords, and rock guitar chords here.

Beautiful People by Australian Crawl Guitar Chords

BEAUTIFUL PEOPLE Australian Crawl

--------------------------------------------------------------------------------

Transcribed by Craig D.


----------------------------please note-----------------------------------------

| This file contains the author’s own work and represents their |
| interpretation of the song. You may only use this file for private |
| study, scholarship or research. |


--------------------------------------------------------------------------------

I saw a request for this song, and hey why not it’s a great party tune!

This was the “Crawl’s” first single in approx. August 1979.

This song appeared on the first album “The Boys Light Up”, and also on:

Crawl File (greatest hits);
The Final Wave (live last concert);
More Wharf (greatest hits).

I have quickly Tabbed out an approximation for the two main parts below.
Listen to the CD to get the timing, it is pretty straight forward.
The remainder of the song consists of the pattern below, once again listen
to the CD to get the feel of this.

|A / / / |Bm / / / |G / / / |D / / / |

Didn’t have a guitar with me when I put the chord symbols over the words.
You may need to make some slight adjustments to these positions.

The intro riff can also be played up around the nineth fret if you like.

INTRO RIFF

 
A 
 
Bm 
 
G 
 
D 
A 
Bm 
G 
D 

E------------------5- ---3---2---3---2-------------------------------------------
B---------3--5---------------------------------3--3--2-----------------------------
G---2--4---------------------------------------------------4--2--0--2----(rpt x 1)-
D----------------------------------------------------------------------------------
A----------------------------------------------------------------------------------
E----------------------------------------------------------------------------------
 
CHORUS RIFF. . . . .
A 
 
F#m 
 
D 
 
C#m 
 
B 
G 
A 

E-------------------------------------------------------------------------
B-------------------------------------------------------------------------
G-------------------------------------------------------------------------
D---7------4--------------------------------------------------------------
A---7------4-----------5----5--4--------2---------------------------------
E---5------2-----------------------------------------5-------3--(rpt x 3)-

VERSE 1

 
I said be
A 
autiful 
 
peo
Bm 
ple, they got a Robert P
G 
almer T-shirt in their travel bag
D 
A 
Beautiful 
 
peopl
Bm 
e, they’ve got a price upon
G 
their 
 
head
D 
I said be
A 
autiful 
 
peopl
Bm 
e, have got some friends who  
G 
just flew in from L.A. yea
D 
h
A 
Beautiful 
 
peopl
Bm 
e, they haven’t really  
G 
much to say.
D 

CHORUS

A F#m Driff
I said people, they just want to take you
A F#m Driff
People, they just want to make you
A F#m Driff
People, they just want to bring you down, they just want to take you down

VERSE 2

 
I said be
A 
autiful 
 
peo
Bm 
ple, they ride two hundred d
G 
ollar push-bikes in the par
D 
k
A 
Beautiful 
 
Peo
Bm 
ple, they won’t admit it but  
G 
they make love in the dark
D 
A 
Beautiful 
 
pe
Bm 
ople, snap frozen po
G 
tted palms in the corner of the living roo
D 
m
A 
Beautiful 
 
peop
Bm 
le, the art deco so
G 
nic 
 
boom
D 

CHORUS

INSTRUMENTAL

VERSE 3

 
A 
Beautiful 
 
peo
Bm 
ple, you know they’re going out t
G 
onight to get their Bombay rocks of
D 
f
A 
Beautiful 
 
peo
Bm 
ple, they’ve got Kerouac  
G 
condition, got a cocaine cough
D 
A 
Beautiful 
 
peo
Bm 
ple, studio  
G 
54 is the only place
D 
to 
 
dance
A 
Beautiful 
 
Peop
Bm 
le, you know the garden’s f
G 
ull of furniture the house is full of  
D 
plants

CHORUS x 2




Leave a Reply

Your email address will not be published.