Thesearethedroids Guitar Chords
Thesearethedroids Guitar Chords

Balisong by Rivermaya Guitar Chords

If you are looking for Balisong guitar chords, you’ve come to the right place.
You can play Balisong by Rivermaya using guitar or guitar.
This song by Rivermaya can also be played by that instruments.
=

Balisong guitar chords has rhythm and included in Between the Stars and Waves (2003) album.
You can also find another musical genres, including jazz guitar chords, country music guitar chords, pop guitar chords, world music guitar chords, and rock guitar chords here.

Balisong by Rivermaya Guitar Chords

Normal tuning

(Para magkasya at mabasa nyo 2 dpt ung font courier new, 9 or 8)

Verse1:

Piano ito, pero pwede rin sa guitar:


|-13---15----13-----15-18--17--15-13--13--15----13--18--17--15--13------|
|-------------------------------------------------------------------15--|
|-----------------------------------------------------------------------|
|-----------------------------------------------------------------------|
|-----------------------------------------------------------------------|
|-----------------------------------------------------------------------|

Your face, lights up the sky on the highway?


|-13--15---13-----15----18---17----15---13--13--15---------13------11---|
|------------------------------------------------------15------15-------|
|-----------------------------------------------------------------------|
|-----------------------------------------------------------------------|
|-----------------------------------------------------------------------|
|-----------------------------------------------------------------------|

Someday, you’ll share your world with me, someday?

(Basta tyming nalang) Medyo mabilis lang 2 eh, parang pitik lang?


|--------------------------------------------------------------------------------------------|
|--------------------------------------------------------------------------------------------|
|--------5---------------------5-------------------5-------------------------------5---------|
|----3--------------------3---------------------3-----------------------------3--------------|
|-5----------6---------5--------------6------5----------6---------------5--------------6-----|
|--------------------------------------------------------------------------------------------|

You mesmerize me? With diamond eyes? I try to fool myself to think I’ll be alright?


|--------------------------------------------------------------------------------------------|
|--------------------------------------------------------------------------------------------|
|--------5-------------------------5-----------------5-----------------------5---------------|
|----3--------------------------3-----------------3------------------------3-----------------|
|-5---------6----------------5--------6-----5--------------6-------------5-----6-------------|
|--------------------------------------------------------------------------------------------|

But I am losin’ of control? My mind, my heart, my body and my soul?

Chorus: (power chords lhat)

 
Bb 
Ne
F 
ver in my life have I been mo
C 
re surerSo c
Eb 
ome on up to me and clo
Bb 
se the doorNob
F 
ody’s made me feel this way
C 
beforeEb (pause)You’re everything I wanted?


|--------------------------------------------------------------------------------------------|
|--------------------------------------------------------------------------------------------|
|-----------5----------------5----------------5----------------5-----------------------------|
|--------3----------------3----------------3----------------3--------------------------------|
|-----5--------6-------5--------6-------5--------6-------5--------6--------------------------|
|--------------------------------------------------------------------------------------------|

And? More?

Verse2:


|--------------------------------------------------------------------------------------------|
|--------------------------------------------------------------------------------------------|
|-------5-------------------------5----------------5---------------------------5-------------|
|----3----------------------3------------------3--------------------------3------------------|
|-5-----------6----------5------------6-----5-------------6------------5--------------6------|
|--------------------------------------------------------------------------------------------|

To speak or not to? Where to begin? The great dilemmas, I’m finding myself in?


|-----------------------------------------------------------------------------------------------------------|
|-----------------------------------------------------------------------------------------------------------|
|-------5-----------------------------------5--------------------5--------------------------------------5---|
|---3-------------------------------------3-------------------3-------------------------------------3-------|
|-5---------------------6---------------5----6-----------5-----------6-----------------------5------------6-|
|-----------------------------------------------------------------------------------------------------------|

For all I know you only see me as a friend? I try to tell myself wake up fool this fairy tales got to end

Chorus: (power chords lhat)

 
Bb 
Ne
F 
ver in my life have I been mo
C 
re surerSo c
Eb 
ome on up to me and clo
Bb 
se the doorNob
F 
ody’s made me feel this way
C 
beforeEb (pause)You’re everything I wanted?

Interlude: (power chords lhat) Bb-F-C-Eb (2x)

Chorus:

 
Bb 
Ne
F 
ver in my life have I been mo
C 
re surerSo c
Eb 
ome on up to me and clo
Bb 
se the doorNob
F 
ody’s made me feel this way
C 
beforeEb Bb F C Eb Bb F C Eb (pause)You’re everything I wanted and more” You’re everything I wanted?

Outro:


|--13--15----13--18--17--15--13------13--15-----------------------------|
|-------------------------------15--------------------------------------|
|-----------------------------------------------------------------------|
|-----------------------------------------------------------------------|
|-----------------------------------------------------------------------|
|-----------------------------------------------------------------------|

Pakirate puh? Thanks ^^




Leave a Reply

Your email address will not be published.