Thesearethedroids Guitar Chords
Thesearethedroids Guitar Chords

Attack of the Dungeon Witch by He Is Legend Guitar Chords

If you are looking for Attack of the Dungeon Witch guitar chords, you’ve come to the right place.
You can play Attack of the Dungeon Witch by He Is Legend using guitar or guitar.
This song by He Is Legend can also be played by that instruments.
=

Attack of the Dungeon Witch guitar chords has rhythm and included in Suck Out the Poison (2006) album.
You can also find another musical genres, including jazz guitar chords, country music guitar chords, pop guitar chords, world music guitar chords, and rock guitar chords here.

Attack of the Dungeon Witch by He Is Legend Guitar Chords


-----------------------------------

|| Attack Of The Dungeon Witch ||
|| He Is Legend ||


-----------------------------------

i noticed most of the tabs for this song didn’t make too much sense so i decided
to set them straight
i used a very useful program called the Amazing Slow Downer and was able to isolate the
and slow it down
i may try to at least tab the intro out on guitar pro so you can get the rhythm right
i know this tab may not be enough

X or Y fret number/note
X pinch harmonic (ph)
Xb bend
XhY hammer-on
XpY pull-off
X/Y slide up
XY slide down


----X-X-X- palm mute

pm |—–|

intro

 
D–3– 
A–3– 
f–0–c–0–g–5–c–5–

then there is a pick scrpe going down the neck which leads to this:

“High priestess you are…”


d|---------------------------------------------------------------|
a|---------------------------------------------------------------|
f|---------------------------------------------------------------|
c|--------------3b----3h5h6-5h6p5-3-5-3-------------------3b-----|
g|----------5-------5-------------------5-4-3---3b--0-3-5----5---|
c|-0--0-3h4------------------------------------------------------|

may be a bending of the 3, but when slowed down, it sounds like a hammer on to a 4

these notesplayed pretty fast like triplets.
the 543 on the g-string may be pull-offs, and honestly they happen so
fast you probably can get away by omitting the 4

“I’ll have your throne”


d|------------------------------------|
a|------------------------------------|
f|------------------------------------|
c|--------------3b----3h5---5---------|
g|----------5-------5-----5-3---------|
c|-0--0-3h4-----------------5----5b--|

repeat “High priestess” riff

harmonization at “Bite marks have covered my armor”


d|--------------------------------------------------------------|
a|--------------------------------------------------------------|
f|--------------------------------------------------------------|
c|--------------7-----7h9h10-9h10p9-7-9-7-----------------7-----|
g|----------5-------9---------------------9-7---7b--0-7-9---9---|
c|-0--0-3h4-----------------------------------------------------|

repeat “I’ll have your throne” riff without the pinch harmonic at the end

“Wake up, the moon is gone”
also has alternate later in the song where there is a different rhythm
with the palm mutes, but you can figure that out


d|------------------------------------------------------------|
a|-3----------------------------------------------------------|
f|-0----------------------------------------------------------|
c|-0-----3-----3---5---5-7------------------------------------|
g|-5-----3---------3---3-5-0-0-0-0-0-0-0-0-0-0-0-0-0-0-0-0----|
c|-5-----3-----------------0-0-0-0-0-0-0-0-0-0-0-0-0-0-0-0----|
palm mute |-----------------------------------|

“Behold the dances of the snake”


d|---------------|
a|---------------|
f|---------------|
c|----------3----|
g|------------5--|
c|-0--0-3h4------|

heres the melodic part

guitar 1


d|-----------------------------|
a|---6--------5--------10------|
f|-7--------5-------------10---|
c|-----------------------------|
g|-----------------------------|
c|-----------------------------|

guitar 2
this may look confusing, but i was trying to save space
basically, everything that has a x4 or x6, play 4 or 6 times, respectively
if you know how to count music, you’d say to yourself:
“1 and 2 and 3…4 and 1 and 2 and 3…” starting at the G power chord
if that description still doesn’t make sense, look at the tabs right below
and that’s the way the rhythm would look like


d|--------------------------------------------------------|
a|--------------------------------------------------------|
f|--------------------------------------------------------|
c|-7-x8--5-x8---------------------------------------------|
g|-5-x8--3-x8--5x4--5--5x6--5--5-5-3x4--3--3x6--3--3-3----|
c|-------------5x4--5--5x6--5--5-5-3x4--3--3x6--3--3-3----|
palm mute |---| |---| |-------| |---| |-------|

second time around


d|----------------------------------|
a|----------------------------------|
f|----------------------------------|
c|-7-7-7-7-7---7-7-7-7-7-7-7--5-----|
g|-5-5-5-5-5---5-5-5-5-5-5-5--3-----|
c|----------------------------------|
|-------| |---------------------|

“Well if you’ve got the magic”


d|-------------------------------------|
a|-------------------------------------|
f|-------------------------------------|
c|-------------------------------------|
g|-0-----------------0-----------------|
c|-0--0-3-5-6-0-3-0--0--0-3-5-6-0-3b-5-|

one of the guitars does a ph on the 5 after the 3b

“…moves, we’ll see who will be hanging whom”
guitar 1


d|----------------------------------------------|
a|----------------------------------------------|
f|---------------------9--9--9--9---10-10-10-10-|
c|----------------------------------------------|
g|-0-------------------7--7--7--7---8--8--8--8--|
c|-0--0-3-5-6-0-3-0--0--------------------------|

guitar 2


d|----------------------------------------------|
a|----------------------------------------------|
f|----------------------------------------------|
c|---------------------10-10-10-10--9--9--9--9--|
g|-0-------------------10-10-10-10--10-10-10-10-|
c|-0--0-3-5-6-0-3-0--0-10-10-10-10--9--9--9--9--|

“Must you leave your broom…”

guitar 1
play all in some kind of rhythm; it doesn’t matter


d|-----------------------------|
a|-----------------------------|
f|---------/7---5--------------|
c|-5---3---/7---5--------------|
g|-5---3---/5---3--------------|
c|-5---3-----------------------|

when the octaves finish, end on the F power chord (3rd fret C string)

guitar 2
all are 1/8th notes

1st time – “…whom”


d|-----------------------------|
a|-----------------------------|
f|-/14--12--9/10--/12---------|
c|-----------------------------|
g|-/12--10--7/8---/10---------|
c|-----------------------------|

2nd time – “Must you leave…”
this time may actually be the same as the 1st time, its hard to hear


d|-----------------------------|
a|-----------------------------|
f|-/14--12--9/10--9----------|
c|-----------------------------|
g|-/12--10--7/8---7----------|
c|-----------------------------|

3rd time – “I can’t let…”
again, its hard to hear, so the octave on 12 may slide down to 10 before it goes to 8


d|-----------------------------|
a|-----------------------------|
f|-/15--14--9/10--9----------|
c|-----------------------------|
g|-/13--12--7/8---7----------|
c|-----------------------------|

4th time


d|----------|
a|----------|

f|-/17–14–|


c|----------|

g|-/15–12–|


c|----------|

then there is some repeating of the same riffs, then the G chord from the beginning, and
awesome Guns N’ Roses style riff
you’re probably going to need a way to slow this one down to get the rhythm
i still had trouble with the rhythm even with it slowed down, but i know these are the notes


d|--------------------------------------------------|
a|--------------------------------------------------|
f|-3b-----3--5-3-6--5--3-------------3--5-6-5--3----|
c|-3b--5--3--5-3-6--5--3-5--5-5-5-5--3--5-6-5--3-5--|
g|-----5-----------------5--5-5-5-5--------------5--|
c|--------------------------------------------------|

palm mute |-|

the intro to “I drank with the dungeon witch”


d|-----------------------------|
a|-----------------------------|
f|-3b--------------------------|
c|-3b--5--5-3-0-10------------|
g|-----5--5-3------------------|
c|-----------------------------|

“I drank with the dungeon witch


d|-------------------------------------------------|
a|-------------------------------------------------|
f|-------------------------------------------------|
c|-------------------------------------------------|
g|-------------------------------------------------|
c|-3b--0--3-5-3-6--5--3b--0--0-0-0-0--3-5-6-5-3-0--|

well there it is. i’ve been waiting for someone less lazy than me to tab it but i guess
isn’t anybody. this was a bch to tab so gimme a good rating cause im about 90%
its all right




Leave a Reply

Your email address will not be published.